Song name
# A B C D E F G H I J K L M N O P Q R S T U V W X Y Z

Steve Fee - Everything Falls tab

Here are the lead guitar parts for this song

Tabbed by Brandon Bushnell
Tuning (EADGBE)


E|--------------------------------------------------------------------|
B|--------5-5----------5-5----------5----------5-5-------6--5---------|
G|--5h7---------5h7----------5h7--------5h7----------5----------7--5--| 2x
D|--------------------------------------------------------------------|
A|--------------------------------------------------------------------|
E|--------------------------------------------------------------------|



 Follow rhythem of the song 
E|------------------|------|-------------------------3-------|
B|------------------|------|-8--10---13--15--13------3-------|
G|-----------5------|------|-7--9----12--14--12------0---7---|
D|---7---3---5---5--|2X--==|-5--7----10--12--10---3--0---7---|
A|---7---3---3---5--|------|----------------------3--X---5---|
E|---5---1-------3--|------|----------------------1--3-------|


E|------3-----------------0----|-----3-------------|
B|----------5----------3-----4x|--------3--2X & 4X-|
G|--5--------------5-----------|--4----------------|
D|-----------------------------|-------------------|
A|-----------------------------|-------------------|
E|-----------------------------|-------------------|

And just repeat all of it in its place have fun.

Tap to rate this tab
 
# A B C D E F G H I J K L M N O P Q R S T U V W X Y Z