Song name
# A B C D E F G H I J K L M N O P Q R S T U V W X Y Z

Steve Fee - Arms That Hold The Universe tab

-----------------------------------------------------------------
     Arms That Hold The Universe - Fee
-----------------------------------------------------------------
Tabbed by: StarrGuitarist
Email: Starrguitarist@gmail.com

Tuning: Standard ebgdaE

Intro/ Verse
e|---------------------------------------------------------------|
B|-------------------------------13----13------------------------|
G|----13-----13-----13s18-17--13----13----13h15-15--15p13-13-----|
D|-15----15------13----------------------------------------------|
A|---------------------------------------------------------------|
E|---------------------------------------------------------------|

Prechorus
e|---------------------------------------------------------------|
B|---------------------------------------------------------------|
G|----13----13-----13----13----13----13----13----13--------------|
D|-15----15-----13----13----15----15----13----13-----------------|
A|---------------------------------------------------------------|
E|---------------------------------------------------------------|

Chorus (strum once and hold)
e|---------------------------------------------------------------|
B|-14----13-----11----9----14---13--11--13--14--11--13-----------|
G|-13----13-----10----8----13---13--10--13--13--10--13-----------|
D|-11----10-----8-----6----11---10--8---10--11--8---10-----------|
A|---------------------------------------------------------------|
E|---------------------------------------------------------------|

e|---------------------------------------------------------------|
B|-------------------------------13----13------------------------|
G|----13-----13-----13s18-17--13----13----13h15-15--15p13-13-----|
D|-15----15------13----------------------------------------------|
A|---------------------------------------------------------------|
E|---------------------------------------------------------------|

Prechorus
e|---------------------------------------------------------------|
B|---------------------------------------------------------------|
G|----13----13-----13----13----13----13----13----13--------------|
D|-15----15-----13----13----15----15----13----13-----------------|
A|---------------------------------------------------------------|
E|---------------------------------------------------------------|

Chorus (strum with the rhythm)
e|---------------------------------------------------------------|
B|-14----13-----11----9----14---13--11--13--14--11--13-----------|
G|-13----13-----10----8----13---13--10--13--13--10--13-----------|
D|-11----10-----8-----6----11---10--8---10--11--8---10-----------|
A|---------------------------------------------------------------|
E|---------------------------------------------------------------|


Bridge part 1 not played by lead guitar

Bridge part 2 (palm muted except for the last note)
e|---------------------------------------------------------------|
B|---------------------------------------------------------------|
G|---------------------------------------------------------------|
D|--4-----6-----8-----8-----4----4----6--------------------------|
A|--4-----6-----8-----8-----4----4----6--------------------------|
E|--2-----4-----6-----6-----2----2----4--------------------------|

Chorus (strum heavily)  (play this part 3 times)
e|----------------------------------|----------------------------|
B|-14----13-----11----9----14---13--|---11--13--14--11--13-------|
G|-13----13-----10----8----13---13--|---10--13--13--10--13-------|
D|-11----10-----8-----6----11---10--|---8---10--11--8---10-------|
A|----------------------------------|----------------------------|
E|----------------------------------|----------------------------|

Outro
e|---------------------------------------------------------------|
B|-------------------------------13----13------------------------|
G|----13-----13-----13s18-17--13----13----13h15-15--15p13-13-----|
D|-15----15------13----------------------------------------------|
A|---------------------------------------------------------------|
E|---------------------------------------------------------------|

| /  slide up
| \  slide down
| h  hammer-on
| p  pull-off
| ~  vibrato
| +  harmonic
| x  Mute note

If there is any issue or you want me to tab out something else just let me know!
Tap to rate this tab
# A B C D E F G H I J K L M N O P Q R S T U V W X Y Z