Song name
# A B C D E F G H I J K L M N O P Q R S T U V W X Y Z

Steve Hackett - Horizons tab

Help us improve GuitareTab! Take a short survey!
i dont no the beginning on the accoustic sry ur gona have to look on the other tab. im 
postive this hole song is right i spent alot of time on it. if u have any questions then 
on aim its Nickleboy525 or myspace me at www.myspace.com/nickleboy525 :)

intro

-------------------------------------\-------------|
-------------------------------------/-------------|
-------------------------------------\-------------|
----555555555555555--777777777777777-/--5-5--3-3-0-|
----xxxxxxxxxxxxxxx--xxxxxxxxxxxxxxx-\--5-5--3-3-0-|
----333333333333333--555555555555555-/--5-5--3-3-0-|
    ...............  ...............   .    .                                            
     x2                then on the 2nd one do this

1 verse

-----------------------------------------|
-----------------------------------------|
-----------------------------------------|
-----------------------------------------|
-----5--7--8-----7--8--10-----8--8--7--5-|
-000---------000-----------10------------|
                   x2

2 verse

-----------------------------------------------|
-----------------------------------------------|
-----------------------------------------------|
-----------------------------------------------|
-------5-7-8------7-8-10---------12--10--8-7-5-|
---555--------777---------101010---------------|
                   x4

repeat verse 1

-----------------------------------------|
-----------------------------------------|
-----------------------------------------|
-----------------------------------------|
-----5--7--8-----7--8--10-----8--8--7--5-|
-000---------000-----------10------------|
                   x2

verse 2

-----------------------------------------------|
-----------------------------------------------|
-----------------------------------------------|
-----------------------------------------------|
-------5-7-8------7-8-10---------12--10--8-7-5-|
---555--------777---------101010---------------|
                   x2


breakdown 1

------------------------------------------------------/-------------------|
------------------------------------------------------\-------------------|
------------------------------------------------------/-------------------|
----0--0--0-0-0--0-0-0--0-0-0--0--0--0-0-0---3----2---\---555-333---------|
----0--0--0-0-0--0-0-0--0-0-0--0--0--0-0-0------7----3/-----------777-333-|
----0--0--0-0-0--0-0-0--0-0-0--0--0--0-0-0------------\-------------------|
    .  .  . . .  . . .  . . .  .  .  . . .
                      x4                               on 4th time do this


Verse 3

----------------------------------------------------------------|
----------------------------------------------------------------|
----------------------------------------------------------------|
----------------------------------------------------------------|
----------7-8-7h8-------7-8-7h8-------8--8h7h5-7-------5--5h3-3-|
----8-8-8---------5-5-5---------0-0-0------------3-3-3----------|
    . . .         . . .         . . .            . . .
                     x4


Verse 1

------------------------------------------------|
------------------------------------------------|
------------------------------------------------|
-0~---------------------------------------------|
-0~---------5--7--8-----7--8--10-----8--8--7--5-|
-0~-----000---------000-----------10------------|

                    x1

verse 2

-----------------------------------------------|
-----------------------------------------------|
-----------------------------------------------|
-----------------------------------------------|
-------5-7-8------7-8-10---------12--10--8-7-5-|
---555--------777---------101010---------------|
                   x4

Breakdown 2

---------------------------------------------------|
---------------------------------------------------|
---------------------------------------------------|
---0~--0-7--0--0-----------0-----------0-0-0-0-0-0-|
---0~--0-x--0--0-----------0-----------0-0-0-0-0-0-|
---0~--0-5--0--0--0-0-0-0--0--0-0-0-0--0-0-0-0-0-0-|
               .  . . . .  .  . . . .  . . . . . .
                  x4

--------------------------------------------------|
--------------------------------------------------|
--------------------------------------------------|
----------0---------0-----------------------------|
----------0---------0-----------------------------|
---0-0-0--0--0-0-0--0--000000---------------------|
   . . .     . . .     ......
                 x4


intro to the solo

-----------------------------------------------------------|
-----------------------------------------------------------|
--------------------------9--9=10-7----------------9-9=10--|
--------------7-----------x--x=x--x-------------7--x-x=x---|
-------5-3----3------5-3--7--7=8--5------5-3----3--7-7=8---|
---1=3-----5--3--1=3-----5-----------1=3-----5--3----------|

----------------------------------------------------------|
----------------------------------------------------------|
----------------------------------------------------------|
--------------7--9-9=10=9=7=5--7--------------------------|
-------5-3----3--x-x=x==x=x=x--3--------------------------|
---1=3-----5--3--7-7=8==7=5=3--3--------------------------|
                    x2


intro to solo 2

-----------------------------------------------------------------|
-----------------------------------------------------------------|
-----------------------------------------------------------------|
---7~=14--16-17---7~=14--14=12-12--16-17--16h17p--14-16--12h14p--|
---7~=x---x--x----7~=x---x==x--x---------------------------------|
---7~=12--14-15---7~=12--12=10-10--------------------------------|

now for the moment weve all been waiting for THE SOLO!!!!


solo

----------17h19p------17h19p-------17h19p-------17h19h-------17h20p-|
--------18----------18-----------18-----------18-----------18-------|
-----19-----------19-----------19-----------19-----------19---------|
---19-----------19-----------19-----------19-----------19-----------|
--------------------------------------------------------------------|
--------------------------------------------------------------------|

---------17h20p-------17h20p-------17h22p-------17h19p-------17h19p-|
-------18-----------18-----------18-----------18-----------18-------|
-----19-----------19-----------19-----------19-----------19---------|
---19-----------19-----------19-----------19-----------19-----------|
--------------------------------------------------------------------|
--------------------------------------------------------------------|

---------17h19p-------17h19p-------17h20-------17h20-|
-------18-----------18-----------18----------18------|
-----19-----------19-----------19----------19--------|
---19-----------19-----------19----------19----------|
-----------------------------------------------------|
-----------------------------------------------------|
           tap about 12 times then switch for 4 times and do that 3 times
--------------------------17t5p-15t3p----------------------------|
-----------------------------------------------------------------|
-----------------------------------------------------------------|
16-17-16h17p-14-16-12h14p--------------16-17-16h17p-14-16-12h14p-|
-----------------------------------------------------------------|
-----------------------------------------------------------------|


----------17h19p------17h19p-------17h19p-------17h19h-------17h20p-|
--------18----------18-----------18-----------18-----------18-------|
-----19-----------19-----------19-----------19-----------19---------|
---19-----------19-----------19-----------19-----------19-----------|
--------------------------------------------------------------------|
--------------------------------------------------------------------|

---------17h20p-------17h20p-------17h22p-------17h19p-------17h19p-|
-------18-----------18-----------18-----------18-----------18-------|
-----19-----------19-----------19-----------19-----------19---------|
---19-----------19-----------19-----------19-----------19-----------|
--------------------------------------------------------------------|
--------------------------------------------------------------------|

---------17h19p-------17h19p-------17h20-------17h20-|
-------18-----------18-----------18----------18------|
-----19-----------19-----------19----------19--------|
---19-----------19-----------19----------19----------|
-----------------------------------------------------|
-----------------------------------------------------|

-----------------------------|
-----------------------------|
-----------------------------|
---16-17-16h17p-14-16-12h14p-|
-----------------------------|
-----------------------------|


then basically u tap till the end
Related for Horizons tab