Guitaretab - guitar tabs
Song name
# A B C D E F G H I J K L M N O P Q R S T U V W X Y Z

Steve Hackett - Lovers tab

This isn't perfect because while I'm currently starting it I'm yet
to figure out the interlude after the second chorus I think it is. 
But what I will tab is pretty close if not perfect.
I'm not gonna do the repeat times so on cus that annoys me
Any comments or criticisms are welcome if its about the tab
Anything not about the tab or the song itself is not wanted
Anyway,on with the tab =]

-Intro:
D [---------22-22-----------21---17[--17-0-14------------------]
A [-----0-19-----19-19\17-17--15---[15-------15-15-17-17-----15]
F [--------------------------------[--------------------14-12--]
C [--------------------------------[---------------------------]
G [--------------------------------[---------------------------]
C [--------------------------------[---------------------------]

>>>[ghost notes before each note but not that important]<<<
D [--17-14------------------][--17-14------------------]
A [15-----15-15-17-17-----15][15-----15-15-17-17-----15]
F [------------------14-12--][------------------14-12--]
C [-------------------------][-------------------------]
G [-------------------------][-------------------------]
C [-------------------------][-------------------------]

D [--------22-22-----------21--17]
A [----0-19-----19-19\17-17--15--]
F [------------------------------]
C [------------------------------]
G [------------------------------]
C [------------------------------]

-Verse:
D [----------------17-19----------------------------------]
A [------17-19---19-----19------17-19\15-19\14-17\12-15\10]
F [-16-19-----16-----------16-19--------------------------]
C [-------------------------------------------------------]
G [-------------------------------------------------------]
C [-------------------------------------------------------]

D [----------------17-19----------------------------------]
A [------17-19---19-----19------17-19\15-19\14-17\12-15\10]
F [-16-19-----16-----------16-19--------------------------]
C [-------------------------------------------------------]
G [-------------------------------------------------------]
C [-------------------------------------------------------]

-Bridge:
D [------------------------------------]
A [-19-17--17--------------------------]
F [------19--19p18h19p18h19\16h18p16h18] 
C [------------------------------------]
G [------------------------------------]
C [------------------------------------]

D [------------------------------------]
A [-19-17--17--------------------------]
F [------19--19p18h19p18h19\16h18p16h18] 
C [------------------------------------]
G [------------------------------------]
C [------------------------------------]

D [------------------------------------]
A [-19-17--17--------------------------]
F [------19--19p18h19p18h19\16h18p16h18] 
C [------------------------------------]
G [------------------------------------]
C [------------------------------------]

-Chorus:
D [-------------------------------------------------------]
A [-------------------------------------------------------]
F [-------------------------------------------------------]
C [9-9-9-7-7-7-5-5-5-5-5-5-5-5-2-2-2-2-2-2-0-0-0-0-0-0-0-0]
G [9-9-9-7-7-7-5-5-5-5-5-5-5-5-2-2-2-2-2-2-0-0-0-0-0-0-0-0]
C [9-9-9-7-7-7-5-5-5-5-5-5-5-5-2-2-2-2-2-2-0-0-0-0-0-0-0-0]

[ Tab from: http://www.guitaretab.com/s/steve-hackett/135612.html ]
D [-------------------------------------------------------]
A [-------------------------------------------------------]
F [-------------------------------------------------------]
C [9-9-9-7-7-7-5-5-5-5-5-5-5-5-2-2-2-2-2-2-0-0-0-0-0-0-0-0]
G [9-9-9-7-7-7-5-5-5-5-5-5-5-5-2-2-2-2-2-2-0-0-0-0-0-0-0-0]
C [9-9-9-7-7-7-5-5-5-5-5-5-5-5-2-2-2-2-2-2-0-0-0-0-0-0-0-0]
let last note of chorus ring then mute before going into the verse

-Verse 2:
D [----------------17-19----------------------------------]
A [------17-19---19-----19------17-19\15-19\14-17\12-15\10]
F [-16-19-----16-----------16-19--------------------------]
C [-------------------------------------------------------]
G [-------------------------------------------------------]
C [-------------------------------------------------------]

the first slide down here is down really fast to kind of mute the sound]
D [----------------17-19-----------------------------------]
A [------17-19---19-----19\------17-19\15-19\14-17\12-15\10]
F [-16-19-----16-----------16-19---------------------------]
C [--------------------------------------------------------]
G [--------------------------------------------------------]
C [--------------------------------------------------------]

-Bridge again:
D [------------------------------------]
A [-19-17--17--------------------------]
F [------19--19p18h19p18h19\16h18p16h18] 
C [------------------------------------]
G [------------------------------------]
C [------------------------------------]

D [------------------------------------]
A [-19-17--17--------------------------]
F [------19--19p18h19p18h19\16h18p16h18] 
C [------------------------------------]
G [------------------------------------]
C [------------------------------------]

D [------------------------------------]
A [-19-17--17--------------------------]
F [------19--19p18h19p18h19\16h18p16h18] 
C [------------------------------------]
G [------------------------------------]
C [------------------------------------]

-Chorus:
D [-------------------------------------------------------]
A [-------------------------------------------------------]
F [-------------------------------------------------------]
C [9-9-9-7-7-7-5-5-5-5-5-5-5-5-2-2-2-2-2-2-0-0-0-0-0-0-0-0]
G [9-9-9-7-7-7-5-5-5-5-5-5-5-5-2-2-2-2-2-2-0-0-0-0-0-0-0-0]
C [9-9-9-7-7-7-5-5-5-5-5-5-5-5-2-2-2-2-2-2-0-0-0-0-0-0-0-0]


D [-------------------------------------------------------]
A [-------------------------------------------------------]
F [-------------------------------------------------------]
C [9-9-9-7-7-7-5-5-5-5-5-5-5-5-2-2-2-2-2-2-0-0-0-0-0-0-0-0]
G [9-9-9-7-7-7-5-5-5-5-5-5-5-5-2-2-2-2-2-2-0-0-0-0-0-0-0-0]
C [9-9-9-7-7-7-5-5-5-5-5-5-5-5-2-2-2-2-2-2-0-0-0-0-0-0-0-0]

-Interlude:
Still trying to figure it out
I'll try and update on how close I am to figuring it out regularly
Its the 6th of august so i hope to have it done within a week

Outro:
D [---------22-22-----------21---17-------------------------]
A [-----0-19-----19-19\17-17--15---17bend up to 18 slowly---]
F [----------------------------------and slowly back down to]
C [----------------------------------seventeen--------------]
G [---------------------------------------------------------]
C [---------------------------------------------------------]

Right thats it
If I missed any parts out other than the interlude leave a comment
I wouldn't be surprised considering its almost midnight and I need some coffee =]


Related for Lovers tab
Advertisement will be closed in 10 seconds