Song name
# A B C D E F G H I J K L M N O P Q R S T U V W X Y Z

Steve Hackett - Camino Royale tab

Intro
e|---------------------------------------------------------------|
B|---------------------------------------------------------------|
G|-9h10----------------------------------------------------------|
D|------10--10-8-10-----------2h3-3--3-2-3--------2h3-3--3-2-3---|
A|------10--10-8-10---------------3--3-2-3------------3--3-2-3---|
E|------8---8--6-8----------------1--1-0-1------------1--1-0-1---|

e|---------------------------------------------------------------|
B|---------------------------------------------------------------|
G|---------------------------------------------------------------|
D|-10--9----9--7------------10--9----9--7------------------------|
A|-10--9----9--7------------10--9----9--7------------------------|
E|-8---7----7--5------------8---7----7--5------------------------|

Lead bit
e----------------------------------------------------------------|
B|----------3-----5b6r5-3-5-3--------------3----5b6r5-3-5-3------|
G|-/5--4--5----5--------------5-4--5--4--5----5--------------5-4-|
D|---------------------------------------------------------------|
A|---------------------------------------------------------------|
E|---------------------------------------------------------------|

e|---------------------------------------------------------------|
B|------------------17b18r17-15-17-15------------------15--------|
G|/12----------------------------------17-16-17--16-17-----17----|
D|---------------------------------------------------------------|
A|---------------------------------------------------------------|
E|---------------------------------------------------------------|

e|-----------------------------15--------------------------------|
B|-17b18r17-15-17-15------------------------10b11r10-8-10-8------|
G|-------------------17-16-17-----17--17\-------------------10-9-|
D|---------------------------------------------------------------|
A|---------------------------------------------------------------|
E|---------------------------------------------------------------|

e|---------------------------------------------------------------|
B|----------8------10b11r10-8-10-8-------------------10b11r10----|
G|-10--9-10----10------------------10-9-/12----------------------|
D|---------------------------------------------------------------|
A|---------------------------------------------------------------|
E|---------------------------------------------------------------|

e|-------------------------------------12----4p2p0---------------|
B|-8-10-8-------10-11--------------8-9-------------4p2p0---------|
G|--------10-9--------13p11p10---9-----------------------4p2p0---|
D|-----------------------------8---------------------------------|
A|---------------------------------------------------------------|
E|---------------------------------------------------------------|

2nd time around... changes a bit in the third and last bars
e----------------------------------------------------------------|
B|----------3-----5b6r5-3-5-3--------------3----5b6r5-3-5-3------|
G|-/5--4--5----5--------------5-4--5--4--5----5--------------5-4-|
D|---------------------------------------------------------------|
A|---------------------------------------------------------------|
E|---------------------------------------------------------------|

e|---------------------------------------------------------------|
B|------------------17b18r17-15-17-15------------------15--------|
G|/12----------------------------------17-16-17--16-17-----17----|
D|---------------------------------------------------------------|
A|---------------------------------------------------------------|
E|---------------------------------------------------------------|

e|---------------------------------------------------------------|
B|-17b18r17-15-17-15-------/20--------------10b11r10-8-10-8------|
G|-------------------17-16----------------------------------10-9-|
D|---------------------------------------------------------------|
A|---------------------------------------------------------------|
E|---------------------------------------------------------------|

e|---------------------------------------------------------------|
B|----------8------10b11r10-8-10-8-------------------10b11r10----|
G|-10--9-10----10------------------10-9-/12----------------------|
D|---------------------------------------------------------------|
A|---------------------------------------------------------------|
E|---------------------------------------------------------------|

e|-------------------------------------12------------------------|
B|-8-10-8-------10-11--------------8-9---------------------------|
G|--------10-9--------13p11p10---9-------------------------------|
D|-----------------------------8---------------------------------|
A|---------------------------------------------------------------|
E|---------------------------------------------------------------|

Verse 1
[No guitar]

Chorus
e|-11----10----10----11----|
B|-13----13----11----13----|
G|-13----12----10----13----|
D|-------------------------| x4
A|-------------------------|
E|-------------------------|


Verse 2
[No guitar]

Chorus
e|-11----10----10----11----|
B|-13----13----11----13----|
G|-13----12----10----13----|
D|-------------------------| x4
A|-------------------------|
E|-------------------------|


Bridge (or something)
e|-------------------------------------------------|
B|-------------------------------------------------|
G|-------------------------------------------------|
D|-------------------------------------------------| This is repeated for a while
A|-------------------------------------------------|
E|-8--8-6-8----8--8-6-8----8--8-6-8----8--8-6-8----|

This is doubled two octaves higher
e|---------------------------------------------------------------------------|
B|---------------------------------------------------------------------------|
G|---------------------------------------------------------------------------|
D|---------------------------------------------------------------------------|
A|---------------------------------------------------------------------------|
E|-8--7----7--5--5--8--7----7--5--5--8--7----7--5--5--8--7----7--5--5--(8)---|


Chorus 3
e|-------------------------|
B|-10----8-----8-----10----|
G|-9-----9-----9-----9-----|
D|-10----10----10----10----|
A|-------------------------|
E|-------------------------|

Lead Bit 2
e----------------------------------------------------------------|
B|----------3-----5b6r5-3-5-3--------------3----5b6r5-3-5-3------|
G|-/5--4--5----5--------------5-4--5--4--5----5--------------5-4-|
D|---------------------------------------------------------------|
A|---------------------------------------------------------------|
E|---------------------------------------------------------------|

e|---------------------------------------------------------------|
B|------------------17b18r17-15-17-15------------------15--------|
G|/12----------------------------------17-16-17--16-17-----17----|
D|---------------------------------------------------------------|
A|---------------------------------------------------------------|
E|---------------------------------------------------------------|

e|---------------------------------------------------------------|
B|-17b18r17-15-17-15-------/20--------------10b11r10-8-10-8------|
G|-------------------17-16----------------------------------10-9-|
D|---------------------------------------------------------------|
A|---------------------------------------------------------------|
E|---------------------------------------------------------------|

e|---------------------------------------------------------------|
B|----------8------10b11r10-8-10-8-------------------10b11r10----|
G|-10--9-10----10------------------10-9-/12----------------------|
D|---------------------------------------------------------------|
A|---------------------------------------------------------------|
E|---------------------------------------------------------------|

e|-------------------------------------12-12----------10---------|
B|-8-10-8-------10-11--------------8-9-------10h12h14------------|
G|--------10-9--------13p11p10---9-----------------------11-11---|
D|-----------------------------8---------------------------------|
A|---------------------------------------------------------------|
E|---------------------------------------------------------------|

e|---------------------------------------------------------------|
B|-10h12h14-------10h12h14------10h12h14-------10h12h14----------|
G|-----------9-------------7-------------13-------------11-------|
D|---------------------------------------------------------------|
A|---------------------------------------------------------------|
E|---------------------------------------------------------------|

e|---------------------------------------------------------------|
B|-10h12h14------10h12h14--------5---5-7---7-8---8-10----10------|
G|----------9-------------7-6-4----4-----7-----7------10---------|
D|---------------------------------------------------------------|
A|---------------------------------------------------------------|
E|---------------------------------------------------------------|

e|----------11----------11----------11---------|
B|-------12----------12----------12------------|
G|----12----------12----------12---------------| x2
D|-13----------13----------13----------13-13---|
A|---------------------------------------------|
E|---------------------------------------------|

e|-------7-------7-------7-------|
B|-----8-------8-------8---------|
G|---8-------8-------8-----------| x2
D|-9-------9-------9-------9-9---|
A|-------------------------------|
E|-------------------------------|

e|---------------------------------------------------------------|
B|-12-10-8-12-10-8-10-8-6-10-8-6---------------------------------|
G|-------------------------------12-10-8-12-10-8-10-8-6-10-8-6---|
D|---------------------------------------------------------------|
A|---------------------------------------------------------------|
E|---------------------------------------------------------------|

e|------------------------------------------|
B|------------------------------------------|
G|------------------------------------------|
D|-13-11-9-13-11-9-11-9-7-11-9-7-6--6-4-6\--|
A|-------------------------------6--6-4-6\--|
E|-------------------------------4--4-2-4\--|

Any comments and sugestions are welcome! Have fun and don't forget to rate
Tap to rate this tab
# A B C D E F G H I J K L M N O P Q R S T U V W X Y Z