Song name
# A B C D E F G H I J K L M N O P Q R S T U V W X Y Z

Steve Hackett - Narnia tab

Help us improve GuitareTab! Take a short survey!
Song: Narnia
Album: Please Don't Touch (Virgin Records)
Copyright ?? 
Music and Lyrics by Steve Hackett

Transcribed by Bill Tindall xf103rep@altavista.com
___________________________________________________________________

                      Narnia (Proper) by Steve Hackett

E |--------------0-----------|--------------------------|
B |-----------0-----0--------|-----------0-----------0--|
G#|--------7-----------7-----|-----0-----------0--------|
E |-----9-----------------9--|--------5-----------5-----|
B |--0-----------------------|--------------0-----------|
E |--------------------------|--0-----------------------|


E |-----------------------0--|
B |-----------0--------------|
G#|-----0-----------0--------|
E |--------5-----------5-----|
B |--------------0-----------|
E |--0-----------------------|





E |-----------------------4--|-----------0--------------|--------------------------|
B |-----------0--------------|-----------------------0--|-----------0-----------0--|
G#|-----0-----------0--------|-----0-----------0--------|-----0-----------5--------|
E |--------5-----------5-----|--------5-----------5-----|--------0-----------0-----|
B |--------------0-----------|--------------------------|--------------------------|
E |--0-----------------------|--0-----------0-----------|--4-----------5-----------|


E |----------0------0---0---|----------------|-----------|-----0-------|-----|
B |----------0------0---0---|-----5----------|---3-------|-----3-------|--5--|
G#|---------10-----12--10---|-----5--///-----|---1--///--|-----3--///--|--5--|
E |-----11---------12--11---|-----5----------|---2-------|-----0-------|--5--|
B |--0--------------0---0---|----------------|---3-------|-----3-------|-----|
E |-------------------------|-----5----------|-----------|-------------|--5--|
             Things they taught you in school can    sometimes disappear



E |-------0--------|-----0----------|----3-----3-------------------3------------5-------0--|
B |-------5--------|-----6----------|----3-----3-------------------3------------5-------0--|
G#|-------4---///--|-----4---///----|----3--/--4-------------------3------------5-------7--|
E |-------3--------|-----5----------|----3-----3-------------------3------------5-------7--|
B |----------------|-----6----------|----3-----5-------------------3------------5-------0--|
E |-------5--------|----------------|----3-----3-------------------3------------5-------7--|
  of a land nothing planned it just happens boys and girls who shout come out to play, oh


E |------0----------------------0--------------------------0-------0--0---0--|
B |------0----------------------0--------------------------0-------0--0---0--|
G#|------7----------------------8--------------------------7-------5--7---8--|
E |------0--//------------------0--------------------------0-------0--0---0--|
B |------7---------------------10--------------------------7-------5--7--10--|
E |------7----------------------0--------------------------7-------5--7---0--|
    They're troubled with snow-covered peaks 'til the end of time.....oh.....

E |----0---0---0----0--|     |--0---0---0---0--|    |--0--0--0--0--|
B |----0---0---0----0--|     |--0---0---0---0--|    |--0--0--0--0--|
G#|----6-/-5-/-6-/--8--|     |--6---8---9--13--|    |--1--1--1--1--|
E |----5---0---5----9--| OR: |--5---9--10---0--| OR |--2--0--1--2--|
B |----7---5---6---10--|     |--7--10--10--14--|    |--3--2--3--3--|
E |----0---0---0----0--|     |--0---0---0---0--|    |--0--0--0--0--|
     Oh...........


E |--0--0--0--0--|--0--|--------------7----------------------5------------------------0-----------|
B |--0--0--0--0--|--0--|-----------7-----7-----------------5-----5-----------------0-----0--------|
G#|--0--0--3--5--|--7--|--------7-----------7-----------5-----------5-----------7-----------7-----|
E |--4--5--0--0--|--0--|-----9-----------------9-----7-----------------7-----9-----------------9--|
B |--4--5--4--5--|--7--|--0-----------------------0-----------------------0-----------------------|
E |--4--5--4--5--|--7--|--------------------------------------------------------------------------|
     Oh oh oh oh    oh




Song: Narnia
Album: Please Don't Touch (Virgin Records)
Copyright ?? 
Music and Lyrics by Steve Hackett

Transcribed by Christophe Coutant yes@club-internet.fr
                                  http://perso/club-internet.fr/yes
---------------------------------------------------------------------------------

Tuning : E B E G# B E  Time Signature: 4/4

                        
|--------------0-----------|--------------0----------|
|-----------0-----0--------|-----------0-----0-------|
|--------7-----------7-----|--------7-----------7----|
|-----9-----------------9--|-----9----------------9--|
|--------------------------|-------------------------|
|--7-----------------------|--7----------------------|
 
                
|--------------0-----------|--------------0-----------|
|-----------0-----0--------|-----------0-----0--------|
|--------7-----------7-----|--------7-----------7-----|
|-----9-----------------9--|-----9-----------------9--|
|--------------------------|--------------------------|
|--7-----------------------|--7-----------------------|
 
          
|--------------------------|-----------------------0--|
|-----------0-----------0--|-----------0--------------|
|-----0-----------0--------|-----0-----------0--------|
|--------5-----------5-----|--------5-----------5-----|
|--------------0-----------|--------------0-----------|
|--0-----------------------|--0-----------------------|

          
        
|-----------------------4--|-----------0--------------|
|-----------0--------------|-----------------------0--|
|-----0-----------0--------|-----0-----------0--------|
|--------5-----------5-----|--------5-----------5-----|
|--------------0-----------|--------------------------|
|--0-----------------------|--0-----------0-----------|

    
|--------------------------|--------------------------|
|--0--------0-----------0--|-----------0-----------0--|
|-----0-----------5--------|-----0-----------5--------|
|--------0-----------0-----|--------0-----------0-----|
|--------------------------|--------------------------|
|--4-----------5-----------|--4-----------5-----------|
 

|--------------------------|
|-----------0-----------0--|
|-----0-----------5--------|
|--------0-----------0-----|
|--------------------------|
|--4-----------5-----------|
 

And now the two chords at the end of Narnia:
 
       
|--------------7-----------|--------------5-----------|
|-----------7-----7--------|-----------5-----5--------|
|--------7-----------7-----|--------5-----------5-----|
|-----9-----------------9--|-----7-----------------7--|
|--0-----------------------|--0-----------------------|
|--------------------------|--------------------------|
Related for Narnia tab