Song name
# A B C D E F G H I J K L M N O P Q R S T U V W X Y Z

Steve Hackett - Petropolis tab

                               PETROPOLIS

                              STEVE HACKETT


Trascrizione di Claudio Caridi
http://digilander.libero.it/hackettsteve/


         Intro
E---||------10-----7-----10-----10-----10-----|--0----------||----------|
B---||---0------------0-------------0------0--|-----7p8--5--||----------|
G---||*---------7------------7----------------|-----7----6--||----------|
D---||*---------------------------------------|-----0----7--||----------|
A---||----------------------------------------|----------0--||--0--2----|
E---||----------------------------------------|-------------||----------|


                         A
E------------2--|--3--2-----------2--|--------------------------|-------|
B---0--2--3-----|--3--3--2--3--5-----|--0-----0--------------2--|--3----|
G---------------|--------2-----------|-----2-----0--------3-----|-------|
D---------------|--2--0--2-----------|-----------------4--------|-------|
A---------------|--------0-----------|--------------------------|--2----|
E---------------|--------------------|--3-----------2-----------|-------|


          D                                            E
E------2--2--------5--3--2--|--0--0--2--3-----------|--0--||--7--5------|
B---2-----3--2--3-----------|--2-----------5--5--4--|--0--||------------|
G---------2-----------------|--2--------------4-----|--1--||------------|
D---------0-----------------|--2--------------4-----|--2--||------------|
A---------------2-----------|--0--------------------|--2--||------------|
E---------------------------|-----0-----------------|--0--||------------|


                           D  1      2
E--------------------5--|--2--||-----||--2-----2--4--5--5--|--0---------|
B---8--7-----8p7--5-----|--3--||--7--||-----3--------5--5--|-----4------|
G------7--7--7----6-----|--2--||--8--||--------------------|------------|
D------0-----0----7-----|--0--||--9--||--------------------|------------|
A-----------------0-----|-----||--9--||--2-----------4-----|--2---------|
E-----------------------|-----||-----||--------------------|------------|

E---0--2--0--|--------------------|--10--5--3--2p3--2--|--2-----2--4----|
B------------|--------------------|--10--5-----3-------|-----3----------|
G------------|--------------------|--11--5-----2-------|----------------|
D------------|--------------------|--0---5-----0-------|----------------|
A------------|--------0--2--3--2--|------0-------------|--2-------------|
E---------0--|--0--2--------------|--------------------|----------------|

E---5--5--|--0-----0--2--0--|-------------------|--10--8--7--5--5--7----|
B---5--5--|-----4-----------|-------------------|--10--8-----5-----8----|
G---------|-----------------|-------------------|--11--9-----7-----7----|
D---------|-----------------|-------------------|--0---0-----0-----0----|
A---4-----|--2--------------|--------0--2--3p2--|-----------------------|
E---------|--------------0--|--0--2-------------|-----------------------|


                   G
E------8--|--7--5--3--3--5p3--|--5p3--2--0--|--0-----0--|--7--5--7------|
B---5--8--|-----7--0-----5-3--|--5-3--3--0--|-----0-----|---------------|
G------9--|-----7--0----------|-------2-----|-----------|---------------|
D------0--|-----0--0----------|-------0-----|-----------|---------------|
A---------|--------2-----3-2--|--3-2--------|-----------|---------------|
E---------|--------3----------|----------0--|-----------|--0------------|

E---------------5--7-----------|-------------------------------3--2-----|
B---8--7-----8--------8--7-----|--7--7p8--7--5--3--2--3--0--------------|
G------7--7--------------7--7--|-----7-------6--------------0-----------|
D------0-----------------0-----|-----0-------7--------------------------|
A------------------------------|-------------0--------------------------|
E------------0-----------------|-------------------------3--------------|


    A
E---0-----|--------------------------5--3--2--0--2--|--7--10--9--7------|
B---2--3--|--7--7--8--7--5--3--2--3--------------3--|-------------------|
G---2-----|--7-----7-----------------------------2--|-------------------|
D---2-----|--0-----0-----------------------------0--|-------------------|
A---0-----|--------------0--------------------------|-----0-------------|
E---------|--------------------------0--------------|-------------------|


             A
E---5--3--2--0-----------0--|--------------------------------3--2--0----|
B------3-----2--2-----2-----|--7--7--8--7--5--3--2--3--0-----------2----|
G------4-----2-----2--------|--7-----7-----6--------------0--------2----|
D------0-----2--------------|--0-----0-----7-----------------------2----|
A------------0--------------|--------------0-----------------------0----|
E---------------------------|--------------------------3----------------|

E------|--------------------|--0-----------------------|----------------|
B---3--|--7-----5--8--7--5--|--0-----------------------|--7-----5--8----|
G------|-----7--------------|--0-----------------------|-----7----------|
D------|--0-----------0-----|--2-----------------------|--0-------------|
A------|--------------------|--2-----------0--2--3--2--|----------------|
E------|--------------------|--0--0--2--3--------------|----------------|

E--------------------------------|-----------0--------|-----------------|
B---7-----5--7--8p7--5--3--2--3--|--0-----3-----3--2--|--------0--2-----|
G------7-----7--7----6-----------|-----0--------2--2--|-----------------|
D---0--------0--0----7-----------|--------------2--2--|-----------------|
A--------------------0-----------|--------------0--0--|--0--2-----------|
E--------------------------------|--3-----------------|-----------------|

E------2--3--2---------2--|--7--2---------2--|--------------------------|
B---3-----3--3--2p3p5-----|--8-----2p3p5-----|--0-----0-----------------|
G---------------2---------|--7-----2---------|-----2-----0--------3-----|
D---------2--0--2---------|--0-----2---------|-----------------4--------|
A---------------0---------|--------0---------|--------------------------|
E-------------------------|------------------|--3-----------2-----------|

E------||-----10-----7-----10-----10-----10-----|--0-------------|------|
B---2--||--0------------0-------------0------0--|-----7p8--5-----|------|
G------||---------7------------7----------------|-----7----6-----|------|
D------||---------------------------------------|-----0----7-----|------|
A------||---------------------------------------|----------0--0--|------|
E------||---------------------------------------|----------------|------|


    Bm
E---2--||---------------------------------------------------------------|
B---3--||---------------------------------------------------------------|
G---4--||---------------------------------------------------------------|
D---4--||---------------------------------------------------------------|
A---2--||---------------------------------------------------------------|
E------||---------------------------------------------------------------|
Tap to rate this tab
# A B C D E F G H I J K L M N O P Q R S T U V W X Y Z