Song name
# A B C D E F G H I J K L M N O P Q R S T U V W X Y Z

Steve Hackett - Variations On A Theme By Chopin tab

#----------------------------------PLEASE NOTE---------------------------------#
#This file is the author's own work and represents their interpretation of the #
#song. You may only use this file for private study, scholarship, or research. #
#------------------------------------------------------------------------------##

                         VARIATIONS ON A THEME BY CHOPIN
                          As recorded by Steve Hackett
                         (From the 1994 Album MOMENTUM)

Music by Steve Hackett
Transcribed by edbq

Gtr I (D A D G B E) - 'guitar'

   Part 1
    Q=105
   4/4
    Gtr I
    ~      ~
||---------------|-------------|--------------|-2--------------|
||o-7--^7--8--7--|-5--^3--2----|-2h3-5---^5---|---5--^4-(4)----|
||-----^0--------|----^2-------|---------^4---|------^4-(4)----|
||---------------|-------------|---------^4---|------^4-(4)----|
||o----^7--------|----^0-------|---------^2---|------^2-(2)----|
||---------------|-------------|--------------|----------------|


|-----^7--------|-------------|--------------|-2-----------|
|-----^8--8-----|-------------|-2h3-5--^5----|---5---^4----|
|-11--^9-----9--|-7--^7--6----|--------^4----|-------^4----|
|-----^9--------|----^7-------|--------^4----|-------^4----|
|-----^7--------|----^0-------|--------^2----|-------^2----|
|---------------|-------------|--------------|-------------|


|-----------------2-^5-|-5-------------|--------------2--^7-7-|-------|
|----^2h3p2---2-3---^5-|---2----(2)----|-^2h3p2---2-3----^5---|-^2----|
|----^4-----4-------^6-|---2----(2)----|-^4-----4--------^6---|-^0----|
|----^4----------------|---------------|-^4-------------------|-------|
|-0--^2-------------^0-|------------0--|-^2--------------^0---|-------|
|----------------------|---------------|----------------------|-------|


                                                                Q=90
|------------------|---------------5-|------------------|-------------------|
|-^3-----2---------|-------0-----5---|-^3-----2---------|-------<12>--^2----|
|------4---------2-|-----0-----6-----|------4---------2-|-----0-------------|
|----4---------4---|---0-----7-------|----4---------4---|---0---------------|
|-^2---------4-----|---------0-------|-^2---------4-----|-------------^0----|
|----------4-------|-5---------------|----------4-------|-5-----------------|


  Q=105
                                      ~                ~
|-----------------|-----------------|----------------|-----------------|
|-7--^7--5-----5--|-7--^7--5-----5--|-8--8--7-----7--|-8--8--7-----7---|
|----^7--6-----6--|----^7--6-----6--|-9--9--7-----7--|-9--9--7-----7---|
|----------<7>----|----------<7>----|----0----<7>----|----0----<7>-----|
|----^0-----------|----^0-----------|----------------|-----------------|
|-----------------|-----------------|----------------|-----------------|


   ~~
|--------------------|---------------------|-------------|------------------|
|-10--^10--^10--^10--|-^10--^10--^10--^10--|-------------|-3---3---2---3----|
|-----^11--^11--^-9--|---------------------|-------------|-2---2---2---2----|
|--------------------|-^12--^11--^12--^11--|-------------|-4---4---4---4----|
|--------------------|---------------------|-<12>--------|---0---0---0---0--|
|--------------------|---------------------|-------------|-0---0---0---0----|


|-0---2---2---0---|-----------------|-----------------|------------------|
|-2---2---2---2---|-3---3---3---0---|-----------------|------------------|
|-0---0---0---0---|-2---2---0---0---|-------0-------0-|-------0-------0--|
|-----------------|-4---4---5---5---|-----4-------2---|-----4-------2----|
|---0---0---0---0-|---0---0---0---0-|---0-------0-----|---0-------0------|
|-0---0---0---0---|-0---0---0---0---|-0-------0-------|-0-------0--------|


|-----------------|-^0--^2--^2--^0--|-----------------|------------------|
|-^3---^3-^2--^3--|-^2--^2--^2--^2--|-^3---^3-^3--^0--|------------------|
|-^2---^2-^2--^2--|-^0--^0--^0--^0--|-^2---^2-^0--^0--|-------0-------0--|
|-^4---^4-^4--^4--|-----------------|-^4---^4-^5--^5--|-----4-------2----|
|-----------------|-^0--^0--^0--^0--|-----------------|---0-------0------|
|-^0---^0-^0--^0--|-----------------|-^0---^0-^0--^0--|-0-------0--------|


|-----------------|-^10---10---9---10---|
|-----------------|-^-7----7---7----7---|
|-------0-------0-|-^-7----7---7----7---|
|-----4-------2---|-----0----0---0----0-|
|---0-------0-----|---------------------|
|-0-------0-------|-^-0-----------------|


|-12---14---14---12---|-10---10---10---7---|
|-14---14---14---14---|--7----7----8---8---|
|-12---12---12---12---|--7----7----7---7---|
|---------------------|--------------------|
|----0----0----0----0-|----0----0----0-----|
|--0------------------|-^0-----------------|


                                       Q=90
                                            ~~      ~~      ~     ~
|-----------------|-----------------||-----------------|--------------|
|-----------------|---------^10----o||-----------------|--------------|
|-------0-------0-|-------0---------||-11--11--12--11--|-9--7--6--7---|
|-----4-------2---|-----4---^11-----||-----------------|--------------|
|---0-------0-----|---0------------o||-----------------|--------------|
|-0-------0-------|-0---------------||-----------------|--------------|


     ~~~~~~~~~       ~~~~~~~~~~
|--------------|----------------|------------------|-------------|------|
|--------------|----------------|------------------|-------------|------|
|--------------|----------------|-11--^11--12--11--|-9--7--6--7--|-9----|
|--------------|----------------|------------------|-------------|------|
|-9--9--10--9--|-7--------------|-----^-0----------|-------------|------|
|--------------|----12--11--12--|------------------|-------------|------|


   Part 2
    Q=135
||----------------------------------|---0-------2-------2-------0-----|
||o---3-------3-------2-------3-----|-----2-------2-------2-------2---|
||------2-------2-------2-------2---|-------0-------0-------0-------0-|
||--------4-------4-------4-------4-|---------------------------------|
||o---------0---------------0-------|---------0---------------0-------|
||--0---------------0---------------|-0---------------0---------------|


|---3-------2-------7-------7-----|---7-------7-------3-------2-----|
|-----0-------0-------0-------0---|-----0-------0-------0-------0---|
|-------0-------0-------0-------0-|-------0-------0-------0-------0-|
|---------0---------------0-------|---------0---------------0-------|
|---------------------------------|---------------------------------|
|-2---------------4---------------|-5---------------2---------------|


|----------------------------|---5-------5-------3-------2-----|
|---5-------5-------5--------|-----7-------7-------0-------0---|
|-----6-------6-------6------|-------7-------7-------0-------0-|
|-------5-------5-------5----|---------7---------------0-------|
|---------7---------------7--|-0---------------0---------------|
|-5---------------5----------|---------------------------------|


|---5-------5-------5-------5-----|---10-------10-------12-------14-----|
|-----7-------7-------7-------7---|------0--------0--------0--------0---|
|-------7-------7-------7-------7-|--------0--------0--------0--------0-|
|---------7---------------7-------|-------------------------------------|
|-0---------------0---------------|----------0-----------------0--------|
|---------------------------------|-0-----------------0-----------------|


|---5-------5-------5--------|---7-------7-------9-------10-----|
|-----5-------5-------5------|-----7-------7-------7--------7---|
|-------6-------6-------6----|-------7-------7-------7--------7-|
|---------7---------------7--|-9-------9-------9-------9--------|
|-0---------------0----------|----------------------------------|
|----------------------------|----------------------------------|


|---7-------7-------9-------10-----|---7-------7-------7-------5-----|
|-----7-------7-------7--------7---|-----5-------5-------5-------5---|
|-------7-------7-------7--------7-|-------7-------7-------6-------6-|
|---------9---------------9--------|---------5---------------5-------|
|----------------------------------|---------------------------------|
|-7---------------7----------------|-5---------------5---------------|


                               1.
|---3-------2-------0---------|---0-------0-------0-------0-----|
|-----0-------0-------0-----3-|-----0-------0-------0-------0---|
|-------0-------0-------0-----|-------0-------0-------0-------0-|
|---------------------------4-|---------0---------------0-------|
|-0-------0-------0-------0---|---------------------------------|
|-----------------------------|-5---------------5---------------|


|---5-------5-------5-------5-----|---5-------5-------5-----5---||
|-----5-------5-------5-------5---|-----5-------5-------5------o||
|-------7-------7-------7-------7-|-------7-------7-------7-----||
|---------7---------------7-------|---------7-------------------||
|---------------------------------|----------------------------o||
|-5---------------5---------------|-5---------------5-----------||


  2.105
               ~
|-^0---------|------------|--------*|
|-^2------7--|-7--5---3---|-(3)----*|
|-^0---------|--------2---|-(2)----*|
|-^2---------|--------4---|-(4)----*|
|-^0---------|------------|--------*|
|------------|--------0---|-(0)----*|


Tap to rate this tab
# A B C D E F G H I J K L M N O P Q R S T U V W X Y Z