Song name
# A B C D E F G H I J K L M N O P Q R S T U V W X Y Z

Steve Hackett - Ace Of Wands tab

Again, this is not a song tabbed by me, I just posted it so then the people who use this 
can see it without searching pages in Google or any other search engine.


Song: Ace Of Wands
Album: Voyage Of The Acolyte (Atlantic Records)

Transcribed by John McGrath


Intro(11/8)

e|----------------------------------------------------------------|
B|-----------------5--8p7p5--5-7----------------------------------|
G|-----------3-6-6---------7-----7-6-4-6--2-4-6--2-4-4p2p0--------|
D|-------2-5------------------------------------------------------|
A|-0h1h4----------------------------------------------------------|
E|----------------------------------------------------------------|


Main Theme(mixed meter)
 (Electric with octave effect)
e|12-14(15)14-12-----------12------------------------------------------------|
B|--------------15---12-15-------17-15---------------------------------------|
G|------------------------------------16-18(19)18-16-14-14-16-14-------------|
D|--------------------------------------------------------------18-16-14-----|
A|---------------------------------------------------------------------------|
E|---------------------------------------------------------------------------|
 |(Acoustic)                                                                 |
e|--------2--2--2------------------------2-----------------------------------|
B|-0--0---3--3--3----3--3---------0--0---3---------x--2---3--3-----0--0------|
G|-0--0---2--2--2----4--4----0----0--0-2-2---------x--2---4--4--1--1--1------|
D|-2--2---0--0--0----4--4----2----2--2-------------x--2---4--4--2--2--2------|
A|-2--2--------------2--2----2----2--2--------------------2--2--2-----2------|
E|-0--0----------------------0----0-----------------------------0-----0------|

e|12-14(15)14-12-----------12------------------------------------------------|
B|--------------15---12-15-------17-15---------------------------------------|
G|------------------------------------16-18(19)18-16-14-14-16-14-------------|
D|--------------------------------------------------------------18-16-14-----|
A|---------------------------------------------------------------------------|
E|---------------------------------------------------------------------------|
 |                                                                           |
e|--------2--2--2------------------------2-----------------------------------|
B|-0--0---3--3--3----3--3---------0--0---3---------x--2---3--3-----0--0------|
G|-0--0---2--2--2----4--4----0----0--0-2-2---------x--2---4--4--1--1--1------|
D|-2--2---0--0--0----4--4----2----2--2-------------x--2---4--4--2--2--2------|
A|-2--2--------------2--2----2----2--2--------------------2--2--2-----2------|
E|-0--0----------------------0----0-----------------------------0-----0------|

e|--------------------------------------------------------------------|
B|--------------------------------------------------------------------|
G|-16p14-12-14p12----12-12-16-14-14~--16p14-12-14p12----12-12-16-14-14|
D|----------------16---------------------------------16---------------|
A|--------------------------------------------------------------------|
E|--------------------------------------------------------------------|
 |                                                                    |
e|----------2------2------------2--------------2--------2--0--2-------|
B|--0-----0-3------3-1-1-1--x-3-3------0--0-0--3----3-x-3--1--3-------|
G|--0-----0-2------2-0-0-0--x-2-2----x-0--0-0--2----2-x-2--2--2-------|
D|2-2-----2-0--------2-2-2--x-0-0----x-2--2-2--0-----------2----------|
A|2-2----------------3-3-3-----------x-2------------------------------|
E|0-0-----------------------------------------------------------------|

e|----------------------------------------------------------------|
B|----------------------------------------------------------------|
G|-9-11(12)11-9---------------------------------------------------|
D|--------------12--9-12------------------------------------------|
A|----------------------------------------------------------------|
E|----------------------------------------------------------------|
 |                                                                |
e|----2----2----2-------------------------------------------------|
B|----3----3----3---3--3------------------------0-------0---------|
G|0-0-2----2----2---4--4--------0-------0-----0-------0-----------|
D|2-2-0-------0-----4--4------0-------0-----0-------0-------------|
A|2-2---------------2--2----2-------3-----2-------3---------------|
E|0-0---------------------3-------5-------------------------------|
 |(Arp 2600)                                                      |
e|----------------------------------------------------------------|
B|----------------------------------------------------------------|
G|------------------------9---12--10--14--12---16(17)16-14-16-10--|
D|----------------------------------------------------------------|
A|----------------------------------------------------------------|
E|----------------------------------------------------------------|

e|------------13p8-8--8p5-5-5\3------------|
B|-----------------------------6/8---------|
G|-----------------------------------------|
D|-----------------------------------------|
A|-----------------------------------------|
E|-----------------------------------------|
 |                                         |
e|-------0----------------0----------------|
B|-----1---1------------1---1--------------|
G|---0-------0---0----0-------0---0--------|
D|-3-----------3----3-----------3----------|
A|-----------------------------------------|
E|-----------------------------------------|
 |                                         |
e|-----------------------------------------|
B|-----------------------------------------|
G|-12~~------------------------------------|
D|-----------------------------------------|
A|-----------------------------------------|
E|-----------------------------------------|

REPEAT MAIN THEME
---|
2nd time
(acoustic)
e|-10-----10------10-----8------8-------8-------|
B|---10-----10------10-----8------8-------8-----|
G|-----12-----12-------------10-----10----------|
D|----------------------------------------------|
A|----------------------------------------------|
E|----------------------------------------------|

e|-10-----10------10-----8------8-------8-------|
B|---10-----10------10-----8------8-------8-----|
G|-----12-----12-------------10-----10----------|
D|----------------------------------------------|
A|----------------------------------------------|
E|----------------------------------------------|

e|-10----10--8------8--6-----6--5-----5-----5---5-----5-----5-----|
B|---10--------8---------6--------5-----5-----5---5-----5---------|
G|-----12--------10--------8--------7-----7---------7-----7-------|
D|----------------------------------------------------------------|
A|----------------------------------------------------------------|
E|----------------------------------------------------------------|

Glockenspiel solo

Transition
(Acoustic)        (I will add this acoustic portion soon)
e|-------3---------------------------------------------------------|
B|-----3---3-------------------------------------------------------|
G|---4-------------------------------------------------------------|
D|-0---------------------------------------------------------------|
A|-----------------------------------------------------------------|
E|-----------------------------------------------------------------|
 |Arp 2600                                                         |
e|-----------------------------------------------------------------|
B|-----------------------------13--------------------------13------|
G|----------------12---14/16-----16~--14\12~---12---14/15----14-10-|
D|-----------------------------------------------------------------|
A|-----------------------------------------------------------------|
E|-----------------------------------------------------------------|


e|----------------------------------------|
B|----------------------0-------0---------|
G|------0-------0-----0-------0-----------|
D|----0-------0-----0-------0-------------|
A|--2-------3-----2-------3---------------|
E|3-------5-------------------------------|
 |                                        |
e|----------------------------------------|
B|----------------------------------------|
G|9---12--10--14--12--16(17)16-14-16-10---|
D|----------------------------------------|
A|----------------------------------------|
E|----------------------------------------|


  (Electric)
e|------------13p8-8--8p5-5-5\3------------|
B|-----------------------------6/8---------|
G|-----------------------------------------|
D|-----------------------------------------|
A|-----------------------------------------|
E|-----------------------------------------|
 |                                         |
e|-------0----------------0----------------|
B|-----1---1------------1---1--------------|
G|---0-------0---0----0-------0---0--------|
D|-3-----------3----3-----------3----------|
A|-----------------------------------------|
E|-----------------------------------------|
 |                                         |
e|-----------------------------------------|
B|-----------------------------------------|
G|-12~~------------------------------------|
D|-----------------------------------------|
A|-----------------------------------------|
E|-----------------------------------------|


e|12-14(15)14-12-----------12------------------------------------------------|
B|--------------15---12-15-------17-15---------------------------------------|
G|------------------------------------16-18(19)18-16-14-14-16-14-------------|
D|--------------------------------------------------------------18-16-14-----|
A|---------------------------------------------------------------------------|
E|---------------------------------------------------------------------------|
 |                                                                           |
e|--------2--2--2------------------------2-----------------------------------|
B|-0--0---3--3--3----3--3---------0--0---3---------x--2---3--3-----0--0------|
G|-0--0---2--2--2----4--4----0----0--0-2-2---------x--2---4--4--1--1--1------|
D|-2--2---0--0--0----4--4----2----2--2-------------x--2---4--4--2--2--2------|
A|-2--2--------------2--2----2----2--2--------------------2--2--2-----2------|
E|-0--0----------------------0----0-----------------------------0-----0------|

e|12-14(15)14-12-----------12------------------------------------------------|
B|--------------15---12-15-------17-15---------------------------------------|
G|------------------------------------16-18(19)18-16-14-14-16-14-------------|
D|--------------------------------------------------------------18-16-14-----|
A|---------------------------------------------------------------------------|
E|---------------------------------------------------------------------------|
 |                                                                           |
e|--------2--2--2------------------------2-----------------------------------|
B|-0--0---3--3--3----3--3---------0--0---3---------x--2---3--3-----0--0------|
G|-0--0---2--2--2----4--4----0----0--0-2-2---------x--2---4--4--1--1--1------|
D|-2--2---0--0--0----4--4----2----2--2-------------x--2---4--4--2--2--2------|
A|-2--2--------------2--2----2----2--2--------------------2--2--2-----2------|
E|-0--0----------------------0----0-----------------------------0-----0------|

e|--------------------------------------------------------------------|
B|--------------------------------------------------------------------|
G|-16p14-12-14p12----12-12-16-14-14~--16p14-12-14p12----12-12-16-14-14|
D|----------------16---------------------------------16---------------|
A|--------------------------------------------------------------------|
E|--------------------------------------------------------------------|
 |                                                                    |
e|----------2------2------------2--------------2--------2--0--2-------|
B|--0-----0-3------3-1-1-1--x-3-3------0--0-0--3----3-x-3--1--3-------|
G|--0-----0-2------2-0-0-0--x-2-2----x-0--0-0--2----2-x-2--2--2-------|
D|2-2-----2-0--------2-2-2--x-0-0----x-2--2-2--0-----------2----------|
A|2-2----------------3-3-3-----------x-2------------------------------|
E|0-0-----------------------------------------------------------------|

e|----------------------------------------------------------------|
B|----------------------------------------------------------------|
G|-9-11(12)11-9---------------------------------------------------|
D|--------------12--9-12------------------------------------------|
A|----------------------------------------------------------------|
E|----------------------------------------------------------------|
 |                                                                |
e|----2----2----2-------------------------------------------------|
B|----3----3----3---3--3------------------------0-------0---------|
G|0-0-2----2----2---4--4--------0-------0-----0-------0-----------|
D|2-2-0-------0-----4--4------0-------0-----0-------0-------------|
A|2-2---------------2--2----2-------3-----2-------3---------------|
E|0-0---------------------3-------5-------------------------------|
 |                                                                |
e|----------------------------------------------------------------|
B|----------------------------------------------------------------|
G|------------------------9---12--10--14--12---16(17)16-14-16-10--|
D|----------------------------------------------------------------|
A|----------------------------------------------------------------|
E|----------------------------------------------------------------|

e|------------13p8-8--8p5-5-5\3------------|
B|-----------------------------6/8---------|
G|-----------------------------------------|
D|-----------------------------------------|
A|-----------------------------------------|
E|-----------------------------------------|
 |                                         |
e|-------0----------------0----------------|
B|-----1---1------------1---1--------------|
G|---0-------0---0----0-------0---0--------|
D|-3-----------3----3-----------3----------|
A|-----------------------------------------|
E|-----------------------------------------|
 |                                         |
e|-----------------------------------------|
B|-----------------------------------------|
G|-12~~------------------------------------|
D|-----------------------------------------|
A|-----------------------------------------|
E|-----------------------------------------|

(acoustic)
e|-10-----10------10-----8------8-------8-------|
B|---10-----10------10-----8------8-------8-----|
G|-----12-----12-------------10-----10----------|
D|----------------------------------------------|
A|----------------------------------------------|
E|----------------------------------------------|

e|-10-----10------10-----8------8-------8-------|
B|---10-----10------10-----8------8-------8-----|
G|-----12-----12-------------10-----10----------|
D|----------------------------------------------|
A|----------------------------------------------|
E|----------------------------------------------|

e|-10----10--8------8--6-----6--5-----5-----5---5-----5-----5-----|
B|---10--------8---------6--------5-----5-----5---5-----5---------|
G|-----12--------10--------8--------7-----7---------7-----7-------|
D|----------------------------------------------------------------|
A|----------------------------------------------------------------|
E|----------------------------------------------------------------|

REPEAT GLOCKENSPIEL INTERLUDE


2nd Transition
(Acoustic)
e|-------3---------------------------------------------------------|
B|-----3---3-------------------------------------------------------|
G|---4-------------------------------------------------------------|
D|-0---------------------------------------------------------------|
A|-----------------------------------------------------------------|
E|-----------------------------------------------------------------|
 |Arp 2600                                                         |
e|-----------------------------------------------------------------|
B|-----------------------------13--------------------------13------|
G|----------------12---14/16-----16~--14\12~---12---14/15----14-10-|
D|-----------------------------------------------------------------|
A|-----------------------------------------------------------------|
E|-----------------------------------------------------------------|


e|----------------------------------------|
B|----------------------0-------0---------|
G|------0-------0-----0-------0-----------|
D|----0-------0-----0-------0-------------|
A|--2-------3-----2-------3---------------|
E|3-------5-------------------------------|
 |                                        |
e|----------------------------------------|
B|----------------------------------------|
G|9---12--10--14--12--16(17)16-14-16-10---|
D|----------------------------------------|
A|----------------------------------------|
E|----------------------------------------|
                                                Repeat this bit
                                                ____V___     here   and here
                                               |       |      V        V
e|---2-2-2----2-2-2-----2-2-2-----2-2-2-2--2---0-0-0-0-0--------------------|
B|---3-3-3----3-3-3-----3-3-3-----3-3-3-3--3---1-1-1-1-1--------------------|
G|---2-2-2----2-2-2-----2-2-2-----2-2-2-2--2---2-2-2-2-2--------------------|
D|---------------------------------------------2-2-2-2-2--------------------|
A|--------------------------------------------------------------------------|
E|--------------------------------------------------------------------------|
 |                                                                          |
e|--------------------------------------------------------------------------|
B|-------------------------------------15--12-------------------------------|
G|-/11---7---12---9---16---12---17--12---------14------------14-------------|
D|-------------------------------------------------12-14-15------12-14-15-14|
A|--------------------------------------------------------------------------|
E|--------------------------------------------------------------------------|

Bass Groove                               VRepeat this bit & fade
G|--------------------------------14~-----16----------14----------|
D|------------------------12--11--------------14~---------16~-----|
A|--------------12~--14-------------------------------------------|
E|-7----10--9-----------------------------------------------------|
 |                                                                |
e|----------------------------------------------------------------|
B|-3--------------------------------------------------------------|
G|-4--------------------------------------------------------------|
D|-4--------------------------------------------------------------|
A|-2--------------------------------------------------------------|
E|----------------------------------------------------------------|
 |                                                                |
e|----------------------------------------------------------------|
B|-15~------------------------------------------------------------|
G|----------------------------------------------------------------|
D|----------------------------------------------------------------|
A|----------------------------------------------------------------|
E|----------------------------------------------------------------|

(Explosion and Whistle)

Acoustic guitar strums a fast D Chord


   Arp 2600
e|----------------------------------------------------------------|
B|----------------------------------------------------------------|
G|-----12-14-16-14-12-11-11~--12p11p7----/16-16-17p16p14----12-11~|
D|--14------------------------------------------------------------|
A|----------------------------------------------------------------|
E|----------------------------------------------------------------|

e|----------------------------------------------------------------|
B|----------------------------------------------------------------|
G|-12p11p7---/16-16-17p16p14----12-11~--12p11p7--/16-16~~---------|
D|----------------------------------------------------------------|
A|----------------------------------------------------------------|
E|----------------------------------------------------------------|

  Electric Guitar
e|----------------------------------------------------------------|
B|----------------------------------------------------------------|
G|-------11--------13~-----16-16-16--13-13-13--8-8-8--4-4-4-------|
D|-13-14-----13-14------------------------------------------------|
A|----------------------------------------------------------------|
E|----------------------------------------------------------------|

e|----------------------------------------------------------------|
B|----------------------------------------------------------------|
G|-------11--------13~-----16-16-16--13-13-13--8-8-8--4-4-4-------|
D|-13-14-----13-14------------------------------------------------|
A|----------------------------------------------------------------|
E|----------------------------------------------------------------|

e|----------------------------------------------------------------|
B|----------------------------------------------------------------|
G|-------11--------13~----------11-13-14----(18)16-14-16-13~------|
D|-13-14-----13-14--------13-14-----------------------------------|
A|----------------------------------------------------------------|
E|----------------------------------------------------------------|

e|----------------------------------------------------------------|
B|----------12-14-12----------------------------------------------|
G|-11-13-14----------14-13~----12-10-10~---10-9-10-9~---9---------|
D|--------------------------------------------------------11-12---|
A|----------------------------------------------------------------|
E|----------------------------------------------------------------|

e|--------------------------------------------------------|
B|--------------------------------------------------------|
G|--------------------------------16-16--17p16p14--12-11--|
D|-11~----------------------------------------------------|
A|--------------------------------------------------------|
E|--------------------------------------------------------|
 |(Arp 2600)                                              |
e|--------------------------------------------------------|
B|--------------------------------------------------------|
G|--------------------------------16-16--17p16p14--12-11--|
D|--------------------------------------------------------|
A|----------7-5-0-5-7/12~~-10p9\5~------------------------|
E|--------------------------------------------------------|

(Guitar and Arp double each other from here on)
e|----------------------------------------------------------------|
B|----------------------------------------------------------------|
G|-12p11p7---/16-16-17p16p14----12-11~--12p11p7--/16-16-17-16-14--|
D|----------------------------------------------------------------|
A|----------------------------------------------------------------|
E|----------------------------------------------------------------|

e|----------------------------------------------------------------|
B|----------------------------15----------------------------------|
G|-------------------14-16-17----17~~~~---------------------------|
D|-17-16----14-16-17----------------------------------------------|
A|-------17-------------------------------------------------------|
E|----------------------------------------------------------------|

e|----------------------------------------------------------------|
B|----------------------------------------------------------------|
G|-------11--------13~-----16-16-16--13-13-13--8-8-8--4-4-4-------|
D|-13-14-----13-14------------------------------------------------|
A|----------------------------------------------------------------|
E|----------------------------------------------------------------|

e|----------------------------------------------------------------|
B|----------------------------------------------------------------|
G|-------11--------13~-----16-16-16--13-13-13--8-8-8--4-4-4-------|
D|-13-14-----13-14------------------------------------------------|
A|----------------------------------------------------------------|
E|----------------------------------------------------------------|

e|----------------------------------------------------------------|
B|----------------------------------------------------------------|
G|-------11--------13~-----16-16-16--13-13-13--8-8-8--4-4-4-------|
D|-13-14-----13-14------------------------------------------------|
A|----------------------------------------------------------------|
E|----------------------------------------------------------------|

e|----------------------------------------------------------------|
B|----------------------------------------------------------------|
G|-------11--------13~-----16-16-16--13-13-13--8-8-8--4-4-4-------|
D|-13-14-----13-14------------------------------------------------|
A|----------------------------------------------------------------|
E|----------------------------------------------------------------|

e|----------------------------------------------------------------|
B|----------------------------------------------------------------|
G|-------11--------13~-----16-16-16--13-13-13--8-8-8--4-4-4-------|
D|-13-14-----13-14------------------------------------------------|
A|----------------------------------------------------------------|
E|----------------------------------------------------------------|

14(15) Bend note up to pitch
(15)14 Bend note down from pitch
x mute note
/13 Slide up
13\ slide down
13~ vibrato/sustain
13p11 pull-off
13h14 hammer-on

Here is the link to the original author of this tab: http://digilander.libero.it/hackettsteve/

Enjoy more of his tabs at his site.
Tap to rate this tab
# A B C D E F G H I J K L M N O P Q R S T U V W X Y Z