Song name
# A B C D E F G H I J K L M N O P Q R S T U V W X Y Z

Steve Jablonsky - Sentinel Prime tab

STEVE JABLONSKY - "SENTINEL PRIME" from "Transformers: Dark of the Moon - The Score"
Tab by Engana92 (simone-grilli@virgilio.it)

Standard tuning

(00:00 - 01:32)
e|-----------------------------------|
B|-----------------------------------|
G|--7777777777777777-----------------|
D|--7---7---7---7--------------------|
A|-----------------------------------|
E|-----------------------------------|


e|----------------------------------------------------------------------------------------|
B|----------------------------------------------------------------------------------------|
G|----------------------------------------------------------------------------------------|
D|--------------------------------------------10------------------------10----------------|
A|--8-7-5-5-7---10-8-7-7-8---12-10-8-8-10---10--7-7-5---12-10-8-7-5---10--7-7-5-----------|
E|----------------------------------------------------------------------------------------|


e|----------------------------------------------------------------------------------------|
B|----------------------------------------------------------------------------------------|
G|----------------------------------------------------------------------------------------|
D|--------------------------------------------10------------------------10-------7--------|
A|--8-7-5-5-7---10-8-7-7-8---12-10-8-8-10---10--7-7-5---12-10-8-7-5---10--8-7---7--7-7-5--|
E|----------------------------------------------------------------------------------------|



(01:33 - end)
e|----------------------------------------------------------------------------------------|
B|-------------------------------------------------13-------------------------------------|
G|--10-9-7-7-9---12-10-9-9-10---14-12-10-10-12---12--9-9-7---14-12-10-9-7---14-12-10-9----|
D|----------------------------------------------------------------------------------------|
A|----------------------------------------------------------------------------------------|
E|----------------------------------------------------------------------------------------|



e|----------------------------------------------------------------------------------------|
B|----13--------------------------------------------------------13------------------------|
G|--12--9-9-7---10-9-7-5-7-----12-10-9-9-10-------12-10-10-12-----15-14-14-15-------------|
D|----------------------------------------------------------------------------------------|
A|----------------------------------------------------------------------------------------|
E|----------------------------------------------------------------------------------------|


e|--13-12-10-8-10---15-13-12-12-10---15-13-12-12-10---------------------------------------|
B|-----------------------------------------------------15-13------------------------------|
G|-----------------------------------------------------------15-14-12---12-10-9-9-7-------|
D|----------------------------------------------------------------------------------------|
A|----------------------------------------------------------------------------------------|
E|----------------------------------------------------------------------------------------|

For any correction or doubt, please  send an e-mail to simone-grilli@virgilio.it.
Tap to rate this tab
 
# A B C D E F G H I J K L M N O P Q R S T U V W X Y Z