Song name
# A B C D E F G H I J K L M N O P Q R S T U V W X Y Z

Steve Kimock - Anorexia tab

This is the guitar solo from 'Anorexia' from the rare Steve Kimock & Friends Live CD 
1995.
I have not been able to find any Steve Kimock solo tabs, so here is my first 
to one of
my very favorite guitar players with one of the coolest styles of playing.
This tab is not exact but I think captures the Anorexia solo well enough to let you try 
his sound.

Thanks for reading!

-'Mike from Olivers'

If you don't own the CD...I found a link on www.digitalsoundboard.net:
http://app1.dsbd.net/dsb/artistdetail.jsp?show=SKF01-S0000232

The basic groove behind the solo goes like this:

(i - iv in C minor)

chords:

|----------6----------|
|---6------6----------|
|---6------6----------|
|---6------5----------|
|----------6----------|
|---6-----------------|

The solo starts around 4:45 during the 1st cut of the live CD.
Anorexia is 8:07 total

     sl
|---------6-6--------------------------------------9---6---------9-9----6-------------------|
|---4--6-------9--6---------------------6--8--6----------8---6------------6-----------------|
|----------------------6-7---------------------------------------------------8--6--7--------|
|--------------------------8-6--------------------------------------------------------8-----|
|-------------------------------------------------------------------------------------------|
|-------------------------------------------------------------------------------------------|

   hold
|-------------------------------------------------------------------------------------------|
|-------------------------------------------------------------------------------------------|
|----8-----6-7-----------------8--6-------6-7----------------------------------------5-5----|
|--------------8--6------------------8--------8-6-----------------8---6--8-----6----------6-|
|--------------------8------------------------------8-7-6--4--------8--------6---6----------|
|-------------------------------------------------------------------------------------------|


|---6-----6---------------------------------------------------------------------------------|
|------9-----9--6-------------6-------------------------------------------------------------|
|------------------8--6---------8---8-----6-7-----------------------------------------------|
|------------------------8--------8------8----8--6------------------------------------------|
|-------------------------------------------------------------------------------------------|
|-------------------------------------------------------------------------------------------|


|---6---------------------------------------------------------------------------------------|
|-----9--6--9-------------------------------------------------------------------------------|
|--------------6-7---------3--------6---------3---6---5---353----3--------------------------|
|---------------------3--5----5--3-------3--5---5---5---5------5----------------------------|
|-------------------------------------------------------------------------------------------|
|-------------------------------------------------------------------------------------------|


|----------------------------------------------------------------------78-------------------|
|----------------------5-6--------------6--8---6--8--9--6--8----6-9-------------------------|
|---------6-7-8----7-8-----8-6-7-------------7----------------8------78---------------------|
|------8--------8----------------8----------------------------------------------------------|
|---8---------------------------------------------------------------------------------------|
|-------------------------------------------------------------------------------------------|


|---78--78--6----------------------------7-8---6-------------6------------------------------|
|-------------9--6------------------6--9-----9---6--9--6-7-8----9---6-----------------------|
|-------------------8---6--6--6-----------------------------------8-------------------------|
|-------------------------------------------------------------------------------------------|
|-------------------------------------------------------------------------------------------|
|-------------------------------------------------------------------------------------------|

|---9-10-6---------6------------------------------------------------------------------------|
|----------6---7-8---9-7-8-6---------------------6------------------------------------------|
|------------8---------------8-6-7--7-7-8-8--7-8---6-5--------------------------------------|
|------------------------------------------------------8------------------------------------|
|--------------------------------------------------------8----------------------------------|
|-------------------------------------------------------------------------------------------|


Bonus Kimock Riff from a between songs on some live recording I lost track of.

       sl
|----------3---------------------------------|
|--------------6--3--------------------------|
|-----3-4------------4-----------------------|
|------------------------5---3---------------|
|--------------------------------5-4-3-2-----|
|-----------------------------------------3--|


Official website for Steve Kimock: http://www.kimock.com/
Tap to rate this tab
# A B C D E F G H I J K L M N O P Q R S T U V W X Y Z