Song name
# A B C D E F G H I J K L M N O P Q R S T U V W X Y Z

Steve Miller Band - You Send Me tab

Steve Miller Band

You Send Me:


Verse/Main Riff:
E---------------------------------------------2------|
B---------------------------------1---------3---3----|
G--------------------0----------0---0-----2-------2--|
D------0-----0-----2---2------2-------2-0------------|
A----2-----0-----2-------2--3------------------------|
E--3-----2-----0-------------------------------------|

Chorus:
E---------------------2-------------------------------
B--------1----------3---3-----------------------------
G------0---0------2-------2-------------------0-------
D----2-------2--0---------------0-----0-----2---2----- x3
A--3--------------------------2-----0-----2-------2---
E---------------------------3-----2-----0-------------

E---------------------------------2-----------2------|
B--------1-----------1----------3---3-------3---3----|
G------0---0-------0---0------2-------2---2-------2--|
D----2-------2---2-------2--0-----------0------------|
A--3-----------3-------------------------------------|
E----------------------------------------------------|



Tap to rate this tab
# A B C D E F G H I J K L M N O P Q R S T U V W X Y Z