Guitaretab - guitar tabs
Song name
# A B C D E F G H I J K L M N O P Q R S T U V W X Y Z

Steve Miller Band - Mercury Blues tab

Mercury Blues by the Steve Miller Band
(standard tuning)


|---------------------|----------------------|
|---------------------|----------------------|
|----------------2b---|----------------------|
|---4-2b-4---4-4----4-|---4-2b-4---4-4-2h3h4-|
|---------------------|----------------------|
|-2-------------------|-2--------------------|
 3 times   

|---------------------|----------------------|
|---------------------|----------------------|
|-----2b-2b-----------|-----2b-2b--2h3h4-----|
|-4-4------4-4--2b-4--|-4-4------4-----------|
|---------------------|----------------------|
|---------------------|----------------------|    


|----------|---------------|----------------------|  
|----------|---------------|----------------------|  
|----------|---------------|----------------2b----|  
|-4-4--6-4-|-4-4--6-6--7-7-|---4-2b-4---4-4----4--|    
|-2-2--2-2-|-2-2--2-2--2-2-|----------------------|   
|----------|---------------|-2--------------------|  
 3 times   
[ Tab from: http://www.guitaretab.com/s/steve-miller-band/156879.html ]
|---------------------|----------------------|
|---------------------|----------------------|
|-----2b-2b-----------|-----2b-2b--2h3h4-----|
|-4-4------4-4--2b-4--|-4-4------4-----------|
|---------------------|----------------------|
|---------------------|----------------------|    


|----------|---------------|----------------------|  
|----------|---------------|----------------------|   
|----------|---------------|----------------2b----|  
|-4-4--6-4-|-4-4--6-6--7-7-|---4-2b-4---4-4----4--|    
|-2-2--2-2-|-2-2--2-2--2-2-|----------------------|   
|----------|---------------|-2--------------------|    
 3 times

|--------------------|
|--------------------|
|--------------------|
|-4-2b-4---4-4-------|
|--------------2h3h4-|
|--------------------|


|----------------------------------------|
|----------------------------------------|
|----------------------------------------|
|-6-6--8-6--6-6--8-6--4-4--6-6--7-7--6-6-|
|-4-4--4-4--4-4--4-4--2-2--2-2--2-2--2-2-|
|----------------------------------------|
You could probably figure out the rest yourself, 
its basically the same thing over and over but 
a little jazzed up.



Related for Mercury Blues tab