Song name
# A B C D E F G H I J K L M N O P Q R S T U V W X Y Z

Steve Miller Band - Gangster Of Love tab

Gangster of Love by the Steve Miller Band (standard tuning)

For the album "Live"

The tabs are of the accoustic guitar as played by Steve Miller (unless indicated otherwise)


|-------------------|-------------------|
|---3---3---3---3---|---3---3---3---3---|
|---1---1---2---2---|---1---1---2---2---|
|---0---0---2---2---|---0---0---2---2---|
|---2---2-----------|---2---2-----------|
|-0---0---0---0-----|-0---0---0---0-----|
 
There is ... (16 times)



|-------------------|-------------------|
|---3---------------|-------------------|
|---1---------------|-------------------|
|---0---------------|-------------------|
|---2---------------|-------------------|
|---0---------------|-------------------|    

Sherrif says ...



|-------------------|-------------------|
|---7---7---7---7---|---7---7---7---7---|
|---7---7---7---7---|---7---7---7---7---|
|---6---6---6---6---|---6---6---6---6---|
|---7---7---7---7---|---7---7---7---7---|
|-------------------|-------------------|  

(I'm a) Gangster ... (4 times)



|-------------------|-------------------|
|-------------------|-------------------|
|-------------------|-------------------|
|---7---8---7---6---|---5---4---5---4---|
|---6---7---6---5---|---4---3---4---3---|
|---7---8---7---6---|---5---4---5---4---|    

(When I) walk ...



|-------------------|-------------------|-------------------|
|-------------------|-------------------|-------------------|
|---2---3---4-------|---3---4---5-------|-----------5---6---|
|---1---2---3-------|---2---3---4-------|-----------4---5---|
|---2---3---4-------|---3---4---5-------|-----------5---6---|
|-------------------|-------------------|-------------------|

[no lyrics]



|-------------------|-------------------|
|---7---7---7---7---|---7---7---7---7---|
|---7---7---7---7---|---7---7---7---7---|
|---6---6---6---6---|---6---6---6---6---|
|---7---7---7---7---|---7---7---7---7---|
|-------------------|-------------------|  

Go Gangster ... (4 times)


Electric Guitar during "Go gangster" playing triplets

|-999-999-999-101010-|-999-999-999-888-|
|-999-999-999-101010-|-999-999-999-888-|
|-777-777-777-8-8-8--|-777-777-777-666-|
|-666-666-666-7-7-7--|-666-666-666-555-|
|-777-777-777-8-8-8--|-777-777-777-666-|
|--------------------|-----------------|  

Go Gangster ... (4 times)


again "When I walk" cord progression + [no lyrics] sequence followed by "Go gangster..."



Coda:

|-------------------|-------------------|------------------|--------------------|
|-------------------|-------------------|------------------|-----------77777777-|
|---2---3---4-------|---3---4---5-------|---4--6---6-------|---5---6---77777777-|
|---1---2---3-------|---2---3---4-------|---3--4---5-------|---4---5---66666666-|
|---2---3---4-------|---3---4---5-------|---4--5---6-------|---5---6---77777777-|
|-------------------|-------------------|------------------|--------------------|


There are some weird chord progressions in this song, so I don't know if I'm 
completely wright or not.
Tap to rate this tab
# A B C D E F G H I J K L M N O P Q R S T U V W X Y Z