Song name
# A B C D E F G H I J K L M N O P Q R S T U V W X Y Z

Steve Miller Band - Jet Airliner tab

                    JET AIRLINER
                  STEVE MILLER BAND

*Capo 3rd fret*
p= pull off

Just strum up and down.
I also recommend if you hammer on the A chord like this:
   D U D U
E -0-0-0-0----------------|
B -2-2-3-2----------------|
G -2-2-2-2----------------|
D -2-2-2-2----------------|
A -0-0-0-0----------------|
E ------------------------|

INTRO: 4x's

RIFF:
E ------------------------|
B ------------------------|
G -2-0-2-0----------------|
D ---------2p0------------|
A ------------3p0---------|
E ------------------------|

VERSE:
  A            D          A
Leavin' home, out on the road
 D                A
I've been down before

Ridin' along in this big ol' jet plane
            D                A
I've been thinkin' about my home

But my love light seems so far away
       G             D        A
And I feel like it's all been done

Somebody's tryin' to make me stay
               G       D      A
You know I've got to be movin' on


CHORUS:
A      G       D      A
Oh, Oh big ol' jet airliner
 G             D        A
Don't carry me too far away
        G      D      A
Oh, Oh big ol' jet airliner
            G             D      A
Cause it's here that I've got to stay


RIFF:x2
E ------------------------|
B ------------------------|
G -2-0-2-0----------------|
D ---------2p0------------|
A ------------3p0---------|
E ------------------------|


VERSE:
 A                  D         A
Goodbye to all my friends at home
     D                   A
Goodbye to people I've trusted

I've got to go out and make my way
        D                              A
I might get rich you know I might get busted

But my heart keeps calling me backwards
      G         D       A
As I get on the Seven-O-Seven

Ridin' high I got tears in my eyes
             G                 D
You know you got to go through hell
           A
Before you get to heaven


CHORUS:
G       D      A
Big ol' jet airliner
 G             D        A
Don't carry me too far away
        G      D      A
Oh, Oh big ol' jet airliner
            G             D      A
Cause it's here that I've got to stay


RIFF:x2
E ------------------------|
B ------------------------|
G -2-0-2-0----------------|
D ---------2p0------------|
A ------------3p0---------|
E ------------------------|


VERSE:
 A                    D       A
Touchin' down in New England town
 D                    A
Feel the heat comin' down

I've got to keep on keepin' on
              D                  A
You know the big wheel keeps on spinnin' around

And I'm goin' with some hesitation
              G     D      A
You know that I can surely see

That I don't want to get caught up in any of that
G     D          A
Funky shit goin' down in the city


CHORUS:
G       D      A
Big ol' jet airliner
 G             D        A
Don't carry me too far away
        G      D      A
Oh, Oh big ol' jet airliner
            G             D      A
Cause it's here that I've got to stay


CHORUS:
A      G       D      A
Oh, Oh big ol' jet airliner
 G             D        A
Don't carry me too far away
        G      D      A
Oh, Oh big ol' jet airliner
            G             D      A
Cause it's here that I've got to stay


RIFF:
E ------------------------|
B ------------------------|
G -2-0-2-0----------------|
D ---------2p0------------|
A ------------3p0---------|
E ------------------------|

 A
Yeah, yeah yeah, yeah


CHORUS:
G       D      A
Big ol' jet airliner
 G             D        A
Don't carry me too far away
        G      D      A
Oh, Oh big ol' jet airliner
            G             D      A
Cause it's here that I've got to stay


CHORUS:
A      G       D      A
Oh, Oh big ol' jet airliner
 G      D      A
Carry me to my home
        G      D      A
Oh, Oh big ol' jet airliner
            G        D    A
Cause it's there that I belong

RIFF:x3
E ------------------------|
B ------------------------|
G -2-0-2-0----------------|
D ---------2p0------------|
A ------------3p0---------|
E ------------------------|

 A                     ... FADE OUT
Yeah, yeah yeah, yeah
|
Tap to rate this tab
# A B C D E F G H I J K L M N O P Q R S T U V W X Y Z