Song name
# A B C D E F G H I J K L M N O P Q R S T U V W X Y Z

Steve Miller Band - Wintertime tab

Help us improve GuitareTab! Take a short survey!
Artist: Steve Miller Band
Title: Wintertime
Tabbed by: waynjohnson1
email: waynejjj99@hotmail.com

tuning: Capo I (Standard)

e--------------0-----------------------------0------------------------|
B-----------1-----1-----------------------1----1-----1----------------|
G--------2-----------2-----------------2----------2-------------------|
D-----2-----------------2-----------2---------------------------------|
A--0------------------------------------------------------------------|
E--------------------------------3*-----------------------------------|
                                                         *play with pinky


e--------------0-------------------------0----------------------------|
B-----------1-----1-----1-------------1-----1-----1-------------------|
G--------2-----------2-------------2-----------2----------------------|
D-----2-------------------------2-------------------------------------|
A---------------------------------------------------------------------|
E--1*-------------------------1*--------------------------------------|
    *play with thumb                      *play with thumb

I think this is probably the Steve Miller's best, and was saddened to find that there 
a tab for it on this site.  I didn't work out the solo, but this is the main part.  Any 
email me.

Peace out.
Related for Wintertime tab