Guitaretab - guitar tabs
Song name
# A B C D E F G H I J K L M N O P Q R S T U V W X Y Z

Steve Miller Band - Mecury Blues tab

This is all by ear and i think this is how u play this song it sounds pretty good. it is 
easy to figure out just listin to the song and play this and it will sound like the song.

Main Riff
--------------------------|
--------------------------|
----------3b-0------------|
--5---5--------5---5------|
--5---5--------5---5------|
--3---3--------3---3------|
[ Tab from: http://www.guitaretab.com/s/steve-miller-band/86559.html ]
------------------------------------------------------------------------------|
------------------------------------------------------------------------------|
----------3b-0-----------------------3b--0------------------------------3b--0-|
--5---5--------5---5------5---5--------------5--5---7--5-5--7---5---5---------|
--5---5--------5---5------5---5--------------3--3---3--3-3--3---5---5---------|
--3---3--------3---3------3---3---------------------------------3---3---------|


------------------------------------------------------------------|
------------------------------------------------------------------|
-----------3b-0---------------------------------------------------|
--5---5------------7---7---9---7---7---9---5--5--7--5--5--7-------|
--5---5------------5---5---5---5---5---5---3--3--3--3--3--3-------|
--3---3-----------------------------------------------------------|

Repeat


Had my money

I tell you what I'd do

I would go downtown

Buy a Mercury or two

Cause I'm crazy 'bout a Mercury

Cruise up and down this road

Up and down this road

I'm goin' to buy me a Mercury

And I'll cruise up and down this road

Up and down this road

please rate
Related for Mecury Blues tab