Song name
# A B C D E F G H I J K L M N O P Q R S T U V W X Y Z

Steve Miller Band - Stake tab

I dont think this is the accauly way but is sounds pretty close, hope you enjoy =)

(slight bend at all of this power chord)
    |
    v            intro/most of the song
e-----------------------------------------------------------------|
b-----------------------------------------------------------------|
g---8---8---8--10---6--7------------------------------------------|
d---8---8---8--10---6--7------------------------------------------|
a---6-x-6-x-6--8----8--5------------------------------------------|
E-----------------------------------------------------------------|

  little riff in the song
e------------------------------------------------------------------|
b------------------------------------------------------------------|
g------------13b---------------------------------------------------|
d------13-15-----15---13-------------------------------------------|
a---15--------------------15-----13--------------------------------|
E----------------------------16-----13-----------------------------|

               solo  (d=release the bend)    (x2)
e---19b20-20-20---------------------------------------------------|
b-----------------19b20d19--17---19b-19b-19b-19b-19b--------------|
g-----------------------------------------------------------------|
d-----------------------------------------------------------------|
a-----------------------------------------------------------------|
E-----------------------------------------------------------------|


e---19b20-20-20---------------------------------------------------|
b----------------19b20d19--17--19b-17b--13h15-13h15p13------------|
g-----------------------------------------------------------------|
d-----------------------------------------------------------------|
a-----------------------------------------------------------------|
E-----------------------------------------------------------------|


right after the solo its that little riff thing again, then its this

e------16-18-20b-18---16------------------------------------------|
b---18--------------------18-----16-------------------------------|
g----------------------------18------15---------------------------|
a-----------------------------------------------------------------|
E-----------------------------------------------------------------|

and i havent figured out the outro solo becasue im too lazy, but yeah i hope this works 
ya, and its my forst tab so dont be to hard on me if its wrong =)  enjoy!
Tap to rate this tab
# A B C D E F G H I J K L M N O P Q R S T U V W X Y Z