Song name
# A B C D E F G H I J K L M N O P Q R S T U V W X Y Z

Steve Miller - Wintertime tab

E|------------------|-----------------|-3---------------|-1--------------|
A|-0-1/3------------|-0---------------|-----------------|----------------|
D|------------------|---2-----------2-|---2-----------2-|---2----------2-|
G|------------------|-----2-------2---|-----2-------2---|-----2-------2--|
B|------------------|-------1---1-----|-------1---1-----|-------1---1----|
e|------------------|---------0-------|---------0-------|---------0------|

E|-1------------------|
A|--------------------|
D|---2-----------2----|
G|-----2-------2------|
B|-------1---1--------|
e|---------0----------|

I'm pretty sure thats how the intro goes.Hope everyone likes it.
Tap to rate this tab
 
# A B C D E F G H I J K L M N O P Q R S T U V W X Y Z