Song name
# A B C D E F G H I J K L M N O P Q R S T U V W X Y Z

Steve Miller - Keep On Rocking Me Baby tab

This is a pretty easy song to play even for beginners with a
little practice and it sounds great when you get it.
The other tabs of this song on here are "Dumbed" down a little,
so they are easier to play, but they just don't sound right.
Please enjoy, rate and comment!

Gyraf17


\-slide down
h-hammer on


Opening riff:

Guitar 1
e|-----------------------------------------------------------------|
B|-----------------------------------------------------------------|
G|-----------------99----------------------------------------------|:x3
D|---77--9\3----7--99--9\3--------9-------9-------9-------9---9\3--|(Last
A|---77--9\3----7--77--9\3---9h11----9h11----9h11----9h11-----9\3--|repeat
E|---55--7\1----5------7\1------------------------------------7\1--|don't do
                                                                    final
                                                                    slide)
Interlude riff:

e|-----------------------|
B|-----------------------|
G|-----------------------|:x2
D|-----------------------|
A|--------2-5----2-------|
E|---2-5-------5---------|


Verses and chorus:

e |------------------------------------------------------------------------|
B |------------------------------------------------------------------------|
G |------------------------------------------------------------------------|
D:|-9-9-9-9--9-9-9-9--9-9-9-9--9-9-9-9--7-7-7-7-7-7-7-7-7-7-7-7-7-7-7-7----|
A |-9-9-9-9-11-9-9-9-11-9-9-9-11-9-9-9--7-7-7-7-9-7-7-7-9-7-7-7-9-7-7-7----|
E |-7-7-7-7--7-7-7-7--7-7-7-7--7-7-7-7--5-5-5-5-5-5-5-5-5-5-5-5-5-5-5-5----|

e|------------------------------------------------------------------------|
B|------------------------------------------------------------------------|
G|-9-9-9-9--9-9-9-9--9-9-9-9--9-9-9-9-------------------------------------|
D|-9-9-9-9-11-9-9-9-11-9-9-9-11-9-9-9--9-9-9-9--9-9-9-9--9-9-9-9--9-9-9-9-|:
A|-7-7-7-7--7-7-7-7--7-7-7-7--7-7-7-7--9-9-9-9-11-9-9-9-11-9-9-9-11-9-9-9-|
E|-------------------------------------7-7-7-7--7-7-7-7--7-7-7-7--7-7-7-7-|

Repeat the verses/chorus as needed.

Enjoy, rate and comment!
Gyraf17
Tap to rate this tab
 
# A B C D E F G H I J K L M N O P Q R S T U V W X Y Z