Guitaretab - guitar tabs
Song name
# A B C D E F G H I J K L M N O P Q R S T U V W X Y Z

Steve Miller - Keep On Rockin Me Baby tab

Keep rockin me baby
Steve miller band
Tabbed by Jjmig
sfichtner@trevornet.org

[ Tab from: http://www.guitaretab.com/s/steve-miller/54484.html ]
Intro:
					x3                                   x2
e|-------------------------------------------/-------------------------|
B|-------------------------------------------/-------------------------|
G|-------------------------------------------/-------------------------|
D|-----------9-9-----------------------------/-------------------------|
A|-7-7-9---9-7-7-9--9h11-9h11-9h11-9h11-9--/-------2-5-0-2-----------|
E|-5-5-7---7-----7------------------------7--/---2-5-------------------|

Verse
e|----------------------------------------------------------------------|
B|----------------------------------------------------------------------|
G|----------------------------------------------------------------------|
D|----------------------------------------------9-9-9-9-9-9-9-9-9-9-9-9-|
A|--7-7-7-7-7-7-7-7-7-7-7-9-9-9-9-9-9-9-9-9-9-9-7-7-7-7-7-7-7-7-7-7-7-7-|
E|--5-5-5-5-5-5-5-5-5-5-5-7-7-7-7-7-7-7-7-7-7-7-------------------------|

Great song, and this is all right, bo ya
Related for Keep On Rockin Me Baby tab