Song name
# A B C D E F G H I J K L M N O P Q R S T U V W X Y Z

Steve Moakler - This Aint Rock And Roll tab

-----------------------------------------------------------------------------
			     THIS AIN'T ROCK AND ROLL - STEVE MOAKLER
                                       Watching Time Run
-----------------------------------------------------------------------------
Tabbed by: Eric Costanzo

Tuning: Standard (EADGBE) NO CAPO

INTRO

E---------------------3---------|
B--1---1----1---1-----0---------|
G--0h2-2h0--0---0-----0---------|  (x2)
D--3---3----0h2-2h0---0---------|
A--3---3----3---3-----2---------|
E---------------------3---------|

VERSE

I drive a compact SUV with a (street ford) engine inside

E--------------------3--------------|
B--1--------1--------0-------1------|
G--2--------0--------0-------0------|
D--3--------2--------0-------2------|
A--3--------3--------2-------3------|
E--------------------3--------------|

And I think the Union won the war but I respect your pride

E--------------------1--------3-----|
B--1--------1--------1--------0-----|
G--2--------0--------2--------0-----|
D--3--------2--------3--------0-----|
A--3--------3--------3--------2-----|
E--------------------1--------3-----|

And I don't chew tobacco, but man I'll drink your beer
I was born up above the Dixie line and I ended up down here

E--------------------3--------------|
B--1--------1--------0-------1------|
G--2--------0--------0-------0------|  (x2)
D--3--------2--------0-------2------|
A--3--------3--------2-------3------|
E--------------------3--------------|

I'm not country, but I like the country. I know where I'm from.
When I hear your songs on the radio, I start having fun.


E--------------------1--------3-----|
B--1--------1--------1--------0-----|
G--2--------0--------2--------0-----|
D--3--------2--------3--------0-----|  (x2)
A--3--------3--------3--------2-----|
E--------------------1--------3-----|

I'm so down with deep fried chicken. Jesus saved my soul. Yeah I'm just a Northern city 
boy and this ain't Rock and roll.

E--------------------3--------------|
B--1--------1--------0-------1------|
G--2--------0--------0-------0------|  (x2)
D--3--------2--------0-------2------|
A--3--------3--------2-------3------|
E--------------------3--------------|

I don't like watching NASCAR, but God bless the number 3

E--------------------3--------------|
B--1--------1--------0-------1------|
G--2--------0--------0-------0------|
D--3--------2--------0-------2------|
A--3--------3--------2-------3------|
E--------------------3--------------|

I cheer on the Pittsburgh Steelers. I don't watch the SCC.

E--------------------1--------3-----|
B--1--------1--------1--------0-----|
G--2--------0--------2--------0-----|
D--3--------2--------3--------0-----|
A--3--------3--------3--------2-----|
E--------------------1--------3-----|

I don't shot guns or ride horses, but I'll give 'em both a try. If Johnny Cash ever 
heard this song I bet he'd start to cry.

E--------------------3--------------|
B--1--------1--------0-------1------|
G--2--------0--------0-------0------|  (x2)
D--3--------2--------0-------2------|
A--3--------3--------2-------3------|
E--------------------3--------------|

I'm not country, but I like the country. I know where I'm from.
When I hear your songs on the radio, I start having fun.


E--------------------1--------3-----|
B--1--------1--------1--------0-----|
G--2--------0--------2--------0-----|
D--3--------2--------3--------0-----|  (x2)
A--3--------3--------3--------2-----|
E--------------------1--------3-----|

I'm so down with deep fried chicken. Jesus saved my soul. Yeah I'm just a Northern city 
boy and this ain't Rock and roll.

E--------------------3--------------|
B--1--------1--------0-------1------|
G--2--------0--------0-------0------|  (x2)
D--3--------2--------0-------2------|
A--3--------3--------2-------3------|
E--------------------3--------------|



Oh I like pretty southern bells and I like to take things slow

E--------------------3--------------|
B--1--------1--------0-------1------|
G--2--------0--------0-------0------|
D--3--------2--------0-------2------|
A--3--------3--------2-------3------|
E--------------------3--------------|

But my cousins are NYPD's and I can drive in the snow.

E--------------------1--------3-----|
B--1--------1--------1--------0-----|
G--2--------0--------2--------0-----|
D--3--------2--------3--------0-----|
A--3--------3--------3--------2-----|
E--------------------1--------3-----|

Yeah I grew up playing in the dirt up where it ain't red. And I got one pair of cowboy 
boots but they ain't gone to my head.

E--------------------3--------------|
B--1--------1--------0-------1------|
G--2--------0--------0-------0------|  (x2)
D--3--------2--------0-------2------|
A--3--------3--------2-------3------|
E--------------------3--------------|

I'm not country, but I like the country. I'm not saying that I'm a real deal. And when 
your songs come on the radio, I like the way I feel.


E--------------------1--------3-----|
B--1--------1--------1--------0-----|
G--2--------0--------2--------0-----|
D--3--------2--------3--------0-----|  (x2)
A--3--------3--------3--------2-----|
E--------------------1--------3-----|

I'm so down with deep fried chicken. Jesus saved my soul. Yeah I'm just a Northern city 
boy and this ain't Rock and roll.

E--------------------3--------------|
B--1--------1--------0-------1------|
G--2--------0--------0-------0------|  (x2)
D--3--------2--------0-------2------|
A--3--------3--------2-------3------|
E--------------------3--------------|


OUTRO

E---------------------3---------|
B--1---1----1---1-----0---------|
G--0h2-2h0--0---0-----0---------|  (x4)
D--3---3----0h2-2h0---0---------|
A--3---3----3---3-----2---------|
E---------------------3---------|


************************************

| /   slide up
| \   slide down
| h   hammer-on
| p   pull-off
| ~   vibrato
| +   harmonic
| x   Mute note
| b   Bend
| pb  Pre-bend
| br  Bend release
| pbr Pre-bend release
| brb Bend release bend

************************************
Tap to rate this tab
# A B C D E F G H I J K L M N O P Q R S T U V W X Y Z