Song name
# A B C D E F G H I J K L M N O P Q R S T U V W X Y Z

Steve Morse - 16th Note Arpeggios tab

----------------------------------------------------------------------------
Steve Morse
			                         16th Note Arpeggios
----------------------------------------------------------------------------
Tabbed by: Bakzee

e|-------------------------------------------------------------------------|
B|--------6-----------5-----------6------------8---------------------------|
G|-------------------------------------------------------------------------|
D|-----7-----7-----7-----7-----7-----7-----10------------------------------|
A|--5-----------4-----------5-----------7---------10-----------------------|
E|-------------------------------------------------------------------------|

e|-------------------------------------------------------------------------|
B|---------10-------------8-------------10-------------10------------------|
G|-------------------------------------------------------------------------|
D|-----10------10-----10-----10-----10------10-----12------12--------------|
A|--8--------------7-------------8--------------9--------------------------|
E|-------------------------------------------------------------------------|

e|-------------------------------------------------------------------------|
B|----------11-------------10--------------11--------------13--------------|
G|-------------------------------------------------------------------------|
D|------12------12-----12------12------12------12------15------15----------|
A|--10--------------9--------------10--------------12----------------------|
E|-------------------------------------------------------------------------|

e|-------------------------------------------------------------------------|
B|----------15--------------18--------------15--------------14-------------|
G|-------------------------------------------------------------------------|
D|------15------15------15------15------14------14------14------14---------|
A|--13--------------13--------------12--------------12---------------------|
E|-------------------------------------------------------------------------|

e|-------------------------------------------------------------------------|
B|----------15--------------18--------------17--------------18-------------|
G|-------------------------------------------------------------------------|
D|------15------15------15------15------17------17------17------17---------|
A|--13--------------13--------------15--------------15---------------------|
E|-------------------------------------------------------------------------|

e|-------------------------------------------------------------------------|
B|----------17--------------17--------------18--------------18-------------|
G|-------------------------------------------------------------------------|
D|------15------17------19------19------19------19------19-----------------|
A|--15--------------16--------------17--------------17----------17---------|
E|-------------------------------------------------------------------------|

Enjoy Practicing
 ============================================================================
Tap to rate this tab
# A B C D E F G H I J K L M N O P Q R S T U V W X Y Z