Song name
# A B C D E F G H I J K L M N O P Q R S T U V W X Y Z

Steve Perry - Oh Sherrie tab

My first tab. Hope you find it useful.




E------------------------13------13-----------------------|
B----------10--11--10--------13------13-------------------|
G--10--12-------------------------------------------------|
D---------------------------------------------------------|
A---------------------------------------------------------|
E---------------------------------------------------------|


E------------------------13------13------13------13--13---|
B----------10--11--10--------13------13------13-----------|
G--10--12-------------------------------------------------|
D---------------------------------------------------------|
A---------------------------------------------------------|
E---------------------------------------------------------|
Tap to rate this tab
 
# A B C D E F G H I J K L M N O P Q R S T U V W X Y Z