Song name
# A B C D E F G H I J K L M N O P Q R S T U V W X Y Z

Steve Poltz - You Remind Me tab

-------------------------------------------------------------------------------
			     You Remind Me - Steve Poltz
-------------------------------------------------------------------------------
Tabbed by: cflat
Email: cflat@earthlink.net

Tuning: ebgdae
Tempo: 82

Not a real fan of making little riff notes and adding it to the lyrics, but it's gonna 
less pages this way. I also approached it for a finger picker on acoustic to sing along with.

I
  E
e|--------4-----------0-----------2p-0---------------0-------------|
B|--------------------------------------------2--------------------|
G|1----------------------------------------------------------------|
D|2-------2---------------2---------------2---------------2--------|
A|2----------------------------------------------------------------|
E|0---------------0---------------0---------------0----------------|

I(alt)
  E
e|--------4-----------0-----------2p-0-----------------------------|
B|--------------------------------------------2------0-------------|
G|1----------------------------------------------------------------|
D|2-------2---------------2---------------2---------------2--------|
A|2----------------------------------------------------------------|
E|0---------------0---------------0---------------0----------------|

II
  E
e|--------------------------------------------0--------------------|
B|----------------0---------------0h-2-------------2p--0-----------|
G|1-------------------------------------------------------1--------|
D|2-----------------------2-------------------------------2--------|
A|2-------2---------------2-------------------------------2--------|
E|0-------0---------------0---------------0------------------------|

III
  A
e|---------------------------------------------2----0--------------|
B|---------------------------------0----------------------2--------|
G|2--------------------------------2----------------------2--------|
D|2--------------------------------2----------------------2--------|
A|0----------------------------------------------------------------|
E|-----------------------------------------------------------------|

IV
  Dbm                              F#m
e|-----------------------------------------------------------------|
B|--------------------4------------------------------2-------------|
G|--------5--------------------------------2-----------------------|
D|--------5---------------5----------------4--------------4--------|
A|4---------------4------------------------------4-----------------|
E|---------------------------------2-------------------------------|

V
  B
e|-----------------------------------------------------------------|
B|--------------------4----------------------------4------------4--|
G|--------4-------------------4----------4---------------4---------|
D|--------4---------------4-------------------4-------------4------|
A|2---------------2----------------2------------------2------------|
E|-----------------------------------------------------------------|

VI
  A                                B
e|---------------------0-------------------------------2-----------|
B|--------2-------------------2------------4--------------------4--|
G|----------------2--------------------------------4---------------|
D|--------2---------------2----------------4----------------4------|
A|0--------------------------------2-------------------------------|
E|-----------------------------------------------------------------|

VII - Two electric slide gtrs. w/chorus

e|-------------|------------------|------------------|---------------------|
B|7--/--9~-----|-----12--\--9~----|-----12--\--9~----|-----9--\--7~--------|
G|-------------|------------------|------------------|---------------------|
D|-------------|------------------|------------------|---------------------|
A|-------------|------------------|------------------|---------------------|
E|-------------|------------------|------------------|---------------------|
 |             |                  |                  |                     |
e|-------------|------------------|------7--/--9~----|-----2--/--4~--------|
B|-------------|------------------|------------------|---------------------|
G|-------------|------------------|------------------|---------------------|
D|-------------|------------------|------------------|---------------------|
A|-------------|------------------|------------------|---------------------|
E|-------------|------------------|------------------|---------------------|

Add some crunchy distortion to the 2nd gtr and let it ring out
VIII
e|--------------------------------|------------------------------------------|
B|7--\--5~------------------------|------------------------------------------|
G|--------------------------------|------------------------------------------|
D|--------------------------------|------------------------------------------|
A|--------------------------------|------------------------------------------|
E|--------------------------------|------------------------------------------|
 |                                |                                          |
e|--------------------------------|------------------------------------------|
B|--------------------------------|------------------------------------------|
G|--------------------------------|------------------------------------------|
D|2-------------------------------|------------------------------------------|
A|2-------------------------------|------------------------------------------|
E|0-------------------------------|------------------------------------------|

7--\--5~---

Intro I, I(alt) x2

II x2
A lightning flash across the sky
I'm looking in your hazel eyes

III x1
I'm looking for something
But I can't find it

I x1

II x2
Forgot my name, I fell from grace
I been gone so long, I don't know this place

III x1
Don't know anyone
I don't know your face

I x1

IV x2
It's an inkblot world, a Rorschach test
You make your way, you try the best you can

V x1

VI x1
You remind me who I am

I x2

II x2
We could die just sitting here
A broken heart, a wayward tear

III x1
An airplane gone astray

I x1

II x2
I intend the love, I can help but run
Where did all this fear come from

III x1
I wonder when it will leave me

I x1

IV x2
Your fingers finger into mine
Holding hands to pass the time
cause we can

V x1

VI x1
You remind me who I am

I x2

VI x1
You remind me who I am

-- Break for "lets see what Pro Tools can do" phase --

IV x3  then  V x1

-and at the same time

VII X1

-then

I x2 & VIII

-- End break --

II x2
A chest of drawers upon the porch
You're in the back like a tiki torch

III x1
You're burnin' fast, you're burning hot

I x1

II x2
And I been singing songs so long
And songs that sounded good alone

III x1
Aren't sounding the way I want them

I x1

IV x2
It's an inkblot world, a Rorschach test
You make your way, you try the best you can

V x1

VI x1
You remind me who I...

IV x2
Your fingers finger into mine
Holding hands to pass the time
cause we can

V x1

VI x2
And you remind me who I am

I x2

outro:

IV until bored

Some variations of the slide gtr from the break.


| /  slide up
| \  slide down
| h  hammer-on
| p  pull-off
| ~  vibrato
| +  harmonic
| x  Mute note
===============================================================================
Tap to rate this tab
 
# A B C D E F G H I J K L M N O P Q R S T U V W X Y Z