Song name
# A B C D E F G H I J K L M N O P Q R S T U V W X Y Z

Steve Stevens - Flamenco A Gogo tab

This is a song my tutor said i should listen to. I
did and i really enjoyed it. Im working on the rest
of the song.

S= Slide
H= Hammer on
*= Harmonic

Intro

e|------------------------------------------------------------------------|
B|--4p0h4p0h4p0--7-5-4-0---2p0h2p0h2p0--5-4-2-0---------------------------|
G|------------------------------------------------5p4-h5p4--9-7-5-0-------|
D|------------------------------------------------------------------------|
A|------------------------------------------------------------------------|
E|------------------------------------------------------------------------|

e|------------------------------------------------------------------------|
B|------------------------------------------------------------------------|
G|--4p2-h4p2--7-5-4-2-----------------------------------------------------|
D|------------------------------------------------------------------------|
A|------------------------------------------------------------------------|
E|------------------------------------------------------------------------|

e|------------------------------------------------------------------------|
B|-----0------------0-0----0----------------------------------------------|
G|-----0------0------0-0---0----------------------------------------------|
D|------------------------------------------------------------------------|
A|--7------7--------7-7----7----------------------------------------------|
E|-----7------7----------7---7--------------------------------------------|

e|------------------------------------------------------------------------|
B|--4p0h4p0h4p0--7-5-4-0---2p0h2p0h2p0--5-4-2-0---------------------------|
G|------------------------------------------------5p4-h5p4--9-7-5-0-------|
D|------------------------------------------------------------------------|
A|------------------------------------------------------------------------|
E|------------------------------------------------------------------------|

e|------------------------------------------------------------------------|
B|------------------------------------------------------------------------|
G|--4p2-h4p2--7-5-4-2-----------------------------------------------------|
D|------------------------------------------------------------------------|
A|------------------------------------------------------------------------|
E|------------------------------------------------------------------------|

e|------------------------------------------------------------------------|
B|-----0------------0-0----0----------------------------------------------|
G|-----0------0------0-0---0----------------------------------------------|
D|------------------------------------------------------------------------|
A|--7------7--------7-7----7----------------------------------------------|
E|-----7------7----------7---7--------------------------------------------|

Then the verse

e|------------------------------------------------------------------------|
B|------------------------------------------------------------------------|
G|--9--11-12-11-9---9s11---7-7------9-11-12-11-12-11-12-11-12-11-9-8-9-11-|
D|------------------------------------------------------------------------|
A|------------------------------------------------------------------------|
E|------------------------------------------------------------------------|

Fill

e|-----------|
B|-----------|
G|-11h12--9--|
D|-----------|
A|-----------|
E|-----------|

e|-----------------------------------*12*12*12*12*12*12*12*12-------------|
B|------------------------------------------------------------------------|
G|--9--11-12-11-9---9s11---7-7------9-11-12-11-12-11-12-11-12-11-9-8-9-11-|
D|------------------------------------------------------------------------|
A|------------------------------------------------------------------------|
E|------------------------------------------------------------------------|

Tadaaaa
Tap to rate this tab
# A B C D E F G H I J K L M N O P Q R S T U V W X Y Z