Song name
# A B C D E F G H I J K L M N O P Q R S T U V W X Y Z

Steve Vai - The Blood And Tears tab

Steve Vai - The Ultra ZOne - The Blood & Tears Guitar Tabs


e:---------------------------------------------------|
B:---------------------------------------------------|
G:----------13--11/13--------------------------------|
D:-11-11-14------------11-11-14---9h11---12h11-9-----|
A:---------------------------------------------------|
E:---------------------------------------------------|


e:---------------------------------------------------|
B:----------12---------------------------------------|
G:--------------13h11-13--9-9--11--11/13--9----------|
D:-11-11-14------------------------------------------|
A:---------------------------------------------------|
E:---------------------------------------------------|


e:---------------------------------------------------|
B:-------12--14/12-14--14-14-17--12h14---------------|
G:-9-9-11--------------------------------------------|
D:---------------------------------------------------|
A:---------------------------------------------------|
E:---------------------------------------------------|


e:----------12-11h12p11-------------------------------|
B:-15h14-12-------------14-12-14----------------------|
G:------------------------------13--14-13-11-13h11-14-|
D:----------------------------------------------------|
A:----------------------------------------------------|
E:----------------------------------------------------|


e:-12-11h12h11---------------------------------------|
B:-------------14-12-14--14/16-17--16/14--12/14------|
G:---------------------------------------------------|
D:---------------------------------------------------|
A:---------------------------------------------------|
E:---------------------------------------------------|


h - hammer on
p - pull off
/ - slide

hope you like it, please rate !!
this is just the intro..i have not checked it twice or thrice.
have fun...
Tap to rate this tab
 
# A B C D E F G H I J K L M N O P Q R S T U V W X Y Z