Song name
# A B C D E F G H I J K L M N O P Q R S T U V W X Y Z

Steve Vai - Amazing Grace tab

|---------||-------------|-----------------|--------------------|
|---------||-^3----------|-(3)-------------|-^3--5h6p5----------|
|---------||-^0------2p0-|--4--------------|-^0--5-------5------|
|------0--||-^0----------|--------2--------|-----5h7p5---5------|
|---------||-------------|------8----8s12--|-^3--------8---7-\5-|
|---------||-^3----3-----|-(3)-------------|--------------------|
        
|----------------------------------|----------------|----------------------|
|----------12-13p12----------------|---0--------3---|-3s5--15--------------|
|----------12----------12----------|---0--------2-0-|-2s4-----14-----------|
|-(5)h7s12-12-14p12----12----------|----------0-----|---------------5-/12--|
|-(5)---------------15----14-12s14-|-(14)\----------|------------14--------|
|--3-------------------------------|--------3-------|----------------------|

|---------------|----------------|------------7-10-7-|
|------------5--|-5-------12-/15-|-------15---8-10-8-|
|------------5--|-5--------------|-------------------|
|-(12)-----0-9--|---7-7-9--9-/12-|-------------------|
|---------------|----------------|----14-------------|
|--10---10------|----------------|-15----------------|

|-----------|-^3--3(15)-------------------------|
|-8--\3--3--|-^5--------5(17)-------------------|
|-7--\2--2--|-^7--------------7(19)-------------|
|-----------|-^5--------------------5(17)-------|
|-----------|-^3--------------------------3(15)-|
|-----------|-----------------------------------|

|------------------------|---------------------------|
|------------------3-----|-8------------12--(12)-----|
|------------------------|-7----------9--9\----------|
|------------------------|---------12--------------7-|
|--------------------5s7-|------10------10\------5---|
|-3(15)----(3(15))-------|---12----------------------|

|--5-------10-8-|-7-5-3-2s14s12-12-|-(12)-------||
|--7-------10-8-|-8-7-5-3s15s13----|--13-----3--||
|--5--9s11-11-9-|-7-7-5-2s14s12----|--12--------||
|-(7)-----------|------------------|---------0--||
|-(5)-----------|------------------|------------||
|---------------|------------------|------------||

|------------|-------------|-^3------------------|
|-3----------|-------------|-^3--(3)-5h6p5-------|
|-0--0---2p0h|=4-----------|-^0--(0)-5---5-------|
|------------|-----2-------|---------5h7p5-------|
|------------|---8---8s12--|-^3------------8-7s5-|
|-3----3-----|-------------|---------------------|

|---------------------------------|
|----------12h13p12-------------0-|
|----------12----12-------------0-|
|-----7s12-12h14p12---------------|
|-(5)---------------15-14-12s14---|
|--3------------------------------|
 
|--------------------|--------------------|------------|----------------|
|-(0)----------3-3-3-|-3s5-15-------------|--------5---|-5---^5---12s15-|
|-(0)--------x---2-0-|-2s4----14----------|--------5---|-5---^5---------|
|--------------------|--------------5-/12-|-----x--9-x-|---7-^7-x--9s12-|
|--------------------|-----------14-------|------------|----------------|
|------3-(3)---------|--------------------|-10---------|----------------|
         
|----------7-10-7-|-----------|-^3--3(15)-------------------------|
|----------8-10-8-|-8--\3--3--|-^5--------5(17)-------------------|
|-----------------|-7--\2--2--|-^7--------------7(19)-------------|
|-----------------|-----------|-^5--------------------5(17)-------|
|-----(14)--------|-----------|-^3--------------------------3(15)-|
|-15--------------|-----------|-----------------------------------|

|--------------------------------|
|-------------------------3------|
|-------------------------0------|
|--------------------------------|
|----------------------------5s7-|
|-3(15)-(3(15))-(3(15))-3--------|

|---------------------10\-----|-5----10-8---|-7-5-3-2-/14-^12-|-(12)----||
|------------------12---------|-7----10-8---|-8-7-5-3-/15-^13-|-(13)----||
|----------------9------------|-5s11-11-9---|-7-7-5-2-/14-^12-|-(12)----||
|-------------12--------------|-7---------0-|-------------^-0-|--(0)----||
|-(7)s9----10--------------5--|-5-----------|-----------------|---------||
|-------12--------------------|-------------|-----------------|---------||

|-(12)------------------<7>-:--------!<12>------------------:
|-(13)--------------<7>-----:--------!<12>------<5>-(5)-(5)-:
|-(12)----------<7>---------:--------!<12>------<5>-(5)-(5)-:
|--(0)------<7>-------------:--------!<12>------------------:
|---------3-----------------:-----10------------------------:
|---------------------------:-3s8----------10s8-------------:

|-8-7--------0--------------:-----------------^3-:-(3)--3------*|
|-----10-8-7--------0-------:---------(0)-----^3-:-(3)--3------*|
|--------------7--------0---:---------(0)-----^4-:-(4)--4------*|
|----------------10---7-----:---0-----(0)-----^7-:-(7)--7------*|
|-------------------------9-:-7-------(0)-----^5-:-(5)--5------*|
|---------------------------:-----8-7---------^3-:-(3)--3------*|

whats going on people this is steve vai's amazing grace song from
Elusive Light and Sound vol 1. its a fun little track to play, it
think the whole tab is correct, if theres anything wrong with it
please email me thanks see ya....
Tap to rate this tab
# A B C D E F G H I J K L M N O P Q R S T U V W X Y Z