Song name
# A B C D E F G H I J K L M N O P Q R S T U V W X Y Z

Steve Vai - Fever Dream tab

Intro/Verse


|--------------------------------|
|--------------------------------|
|--------------------------------|
|--------------------------------|
|-----------==============-------|
|-----------7/18--------1--------|


|-------------------------------|
|-------------------------------|
|*------------------------------|
|*---------------------6~~------|
|---------===------9------------|
|--0------6/7-------------------|
          th


|-------------------------------|
|-------------------------------|
|-------------------------------|
|------------------9---8~~------|
|---------===-------------------|
|--0------6/7-------------------|
          th

|-------------------------------|
|-------------------------------|
|-------------------------------|
|----------------7--------------|
|--------===----------8~~-------|
|--0-----6/7--------------------|
         th

|-------------------------------|
|-------------------------------|
|------------------------------*|
|----------------6-------------*|
|-------===-----------7~~-------|
|--0----6/7---------------------|
        th

|-------------------------------|
|-------------------------------|
|-------------------========----|
|------------------11--/--18~~~-|
|-------===----9----------------|
|--0----6/7---------------------|
        th

|-------------------------------|
|-------------------========----|
|------------------11--/--18~~~-|
|--------------9----------------|
|-------===---------------------|
|--0----6/7---------------------|
        th

|--------------13----9----------|
|-------------------------9~~---|
|-------------------------------|
|-------------------------------|
|-------===---------------------|
|--0----6/7---------------------|
        th

|--------------11----7----------|
|-------------------------7~~---|
|-------------------------------|
|-------------------------------|
|-------===---------------------|
|--0----6/7---------------------|
        th

|-------------------------------|
|-------------------------------|
|--------------------6~~--------|
|-------===------9--------------|
|--0----6/7---------------------|
|-------------------------------|


|-------------------------------|
|-------------------------------|
|---------------9----8~~--------|
|-------===---------------------|
|--0----6/7---------------------|
|-------------------------------|


|---------------------------------|
|---------------------------------|
|---------------------------------|
|--------------------6~~----------|
|-------===-----9-----------------|
|--0----6/7-----------------------|
        th

|-------------------------------|
|-------------------------------|
|-------------------------------|
|---------------9---------------|
|-------===----------9~~--------|
|--0----6/7---------------------|
        th

|-------------------------------|
|-------------------------------|
|-------------------------------|
|-----------------14----11------|
|--====----/12------------------|
|--9/10-------------------------|
   th

|-------------------------------|
|-------------------------------|
|-------------------------------|
|-----------------13---9--------|
|--===----/11-------------------|
|--8/9--------------------------|
   th

|-------------------------------|
|-------------------------------|
|-------------------------------|
|----------------------6~~------|
|---------===------9------------|
|--0------6/7-------------------|
          th
                  ph_______
|--------------------------|----|
|-------------------------------|
|-------------------------------|
|------------------9---8~~------|
|---------===-------------------|
|--0------6/7-------------------|
          th
                ph_________
|--------------------------|----|
|-------------------------------|
|-------------------------------|
|----------------7--------------|
|--------===----------8~~-------|
|--0-----6/7--------------------|
         th

|-------------------------------|
|-------------------------------|
|-------------------------------|
|----------------9---9---9------|
|---7---7---7-------------------|
|-------------------------------|


|------------------7---7---7----|
|-------------------------------|
|--11---11---11-----------------|
|-------------------------------|
|-------------------------------|
|-------------------------------|

|---7/14--14--14-/-17--17--17---|
|-------------------------------|
|-------------------------------|
|-------------------------------|
|-------------------------------|
|-------------------------------|


|---17----------17--------17----|
|-------------------------------|
|-------------------------------|
|-------------------------------|
|-------------------------------|
|-------------------------------|

       tr
|---14===11---------------------|
|-------------------------------|
|-------------------------------|
|-------------------------------|
|-------------------------------|
|-------------------------------|
Tap to rate this tab
# A B C D E F G H I J K L M N O P Q R S T U V W X Y Z