Song name
# A B C D E F G H I J K L M N O P Q R S T U V W X Y Z

Steve Vai - My Guitar Wants To Kill Your Mama tab

This Is My first tab and Ive decided to Tab the Intro to this song
because I couldnt find any tabs For this Version.
Comments would be appriciated.

Standard Tuning


E
B
G
D
A
E
     Let 2nd bar chord ring through to the 3rd strum.
|-----2-2--2-2----------------------------------------|
|-----2-2--2-2----------------------------------------|
|-----3-3--3-3----------------------------------------|   Repeat 4x
|-----4-4--4-4----------------------------------------|   
|-0---4-4--4-4--0------2-1----------------------------|
|-0---2-2--2-2--0---0-------2-0-----------------------|
      ^ ^ ^ ^
     E bar Chord On the 2nd Fret.  


         Harmonised lead
          Guitar 1
|-------------------------------------------------|
|---------------------------9---------------------|
|---------------8--9-----11-----------------------|
|----8---9-11-------------------------------------|
|-------------------------------------------------|
|-------------------------------------------------|


           Guitar 2
|--------------------------14-16------------------|
|----11---12-14----16-17--------------------------|
|-------------------------------------------------|
|-------------------------------------------------|
|-------------------------------------------------|
|-------------------------------------------------|



Verse Rythym.

|------2-2-2-2-2----------------------------------|
|------2-2-3-3-3----------------------------------|
|--1s--3-3-3-3-3--1-1-1---------------------------|  Repeat 8x
|--2s--4-4-4-4-4--2-2-2---------------------------|
|--2s--4-4-4-4-4--2-2-2----2-1--------------------|
|--0s--2-2-2-2-2--0-0-0--------2-0----------------|

s = slide


|--7-7-7--7-7-7-7-7--7-7--------------------------|
|--7-7-7--7-7-7-7-7--7-7--------------------------|
|--8-8-8--8-8-8-8-8--8-8--------------------------|  Repeat 2x
|--9-9-9--9-9-9-9-9--9-9--------------------------|
|--9-9-9--9-9-9-9-9--9-9--------------------------|
|--7-7-7--7-7-7-7-7--7-7--------------------------|

  Listen to the song for the rythym of the strumming for these two parts.

|--9---9---9---9---9---9--9---9---9---------------|
|--9---9---9---9---9---9--9---9---9---------------|
|-10--10--10--10--10--10--10--10--10--------------|
|-11--11--11--11--11--11--11--11--11--------------|
|-11--11--11--11--11--11--11--11--11--------------|
|--9---9---9---9---9---9---9---9---9--------------|







Chorus Rythym

|---2-2-2-2-2-2-2-2-2-2-2-------------------------|
|---2-2-2-2-2-2-2-2-2-2-2-------------------------|
|---3-3-3-3-3-3-3-3-3-3-3-------------------------|
|---4-4-4-4-4-4-4-4-4-4-4-------------------------|   Repeat 4x
|---4-4-4-4-4-4-4-4-4-4-4-------------------------|
|---2-2-2-2-2-0-2-2-2-2-2-------------------------|


|--7-7-7-7-7-7-7-7-----------------------------|
|--7-7-7-7-7-7-7-7-----------------------------|
|--8-8-8-8-8-8-8-8-----------------------------|  Repeat 2x
|--9-9-9-9-9-9-9-9-----------------------------|
|--9-9-9-9-9-9-9-9-----------------------------|
|--7-7-7-7-7-7-7-7-----------------------------|

|--9---9---9---9---9---9--9---9---9---------------|
|--9---9---9---9---9---9--9---9---9---------------|
|-10--10--10--10--10--10--10--10--10--------------|
|-11--11--11--11--11--11--11--11--11--------------|
|-11--11--11--11--11--11--11--11--11--------------|
|--9---9---9---9---9---9---9---9---9--------------|


That is all for now but it definitely will be updated.



Tap to rate this tab
# A B C D E F G H I J K L M N O P Q R S T U V W X Y Z