Song name
# A B C D E F G H I J K L M N O P Q R S T U V W X Y Z

Steve Vai - Brother tab

    Steve Vai - Brother [Solo]                                  


                                          Furqan Ali Shah (furqan84@hotmail.com)
Solo



                                                                 
E||-----------------------------|-------------------------------|
B||--18b-18b-----------------15-|------18-----------------------|
G||------------19/--------15----|--17b----17r-17-15-17/19-17~---|
D||------------19/-----15-------|-------------------------------|
A||-----------------------------|-------------------------------|
E||-----------------0-----------|-------------------------------|


                                                                              
------------------|------------------------------|---------------------------|
------------------|------------------------------|-----------------20-20-----|
--17----15~-------|--15r-15-14-15/17-14/-12--10/-|--9/--17------17-19b19~----|
------------------|------------------------------|---------------------------|
------------------|------------------------------|---------------------------|
------------------|------------------------------|---------15/0--------------|


                                                                          
--------------------17-----------------|---------------------------------|
----------20---------------------------|-----------------------------18~-|
--19r-19b----19r-17----19r-17----17/21-|--17h19/21/19p-17----19b--19b----|
------------------------------19-------|---------------------------------|
---------------------------------------|-------------------0-------------|
---------------------------------------|-------------------0-------------|


                                                                           
-------------------------------------------------|----20r---20~-22-20-20r-|
--18~---18-20/22--22h23p22p20-22-22r22-20-23b----|------------------------|
-------------------------------------------------|------------------------|
-------------------------------------------------|------------------------|
----------------------------------------------19-|------------------------|
-------------------------------------------------|------------------------|


                                                             
--17----17-----17h20p17-------------------------------------|
-----20----20b----------20p17h20p17h20p17----17-------------|
------------------------------------------20----20-19-19~---|
------------------------------------------------------------|
------------------------------------------------------------|
------------------------------------------------------------|


                                            
---------------------------------------5---|
-----------------20-20-------------------5-|
--------19b---19----19r-17----19-17-17/----|
----22/--------------------19--------------|
--0----------------------------------------|
--0----------------------------------------|


                                                                     
-----5---------------------------------|----------------------15----|
-------5-------------------------------|--------------15b15------15r|
--7b-----7r-5--------------------------|----------------------------|
--------------7-5----------------------|----------------------------|
------------------7p5-3-5r-5p3-------3-|----------------------------|
-------------------------------5-3-5---|--5-3-5~---15/--------------|


                                                        
----------------------------|--12b-----12r-10----------|
--15----13/10-13/16/13----6-|-----------------13-10/15-|
----------------------------|--------------------------|
----------------------------|--------------------------|
----------------------------|--------------------------|
----------------------------|--------------------------|


                                                        
-----------------------------|-------------------------|
--12~---10h12p10/8-----------|-------------------------|
--------------------10--9r-9p|--7----------------------|
-----------------------------|-----10--9h10/12--9------|
-----------------------------|---------------------10/-|
-----------------------------|-------------------------|


                                                                   
---------------------------|------------------|------------------||
---------------------------|------------------|--15b-15b---------||
---------------------------|------------------|------------------||
---------------------------|------------------|------------------||
--12/-10--8--7-8p7---------|------------------|------------------||
-------------------10--8-7-|--8-10--3---------|------------------||




Chords for the solo..

     C               Bb/C            F               B             
E||--0------------|--1------------|--1------------|--2------------|
B||--1------------|--3------------|--1------------|--0------------|
G||--0------------|--3------------|--2------------|---------------|
D||--2------------|--0------------|--3------------|--1------------|
A||--3------------|--3------------|--3------------|--2------------|
E||---------------|---------------|--1------------|---------------|


  C               Bb/C            F               B               Am7           
--0------------|--1------------|--1------------|--2------------|--0------------|
--1------------|--3------------|--1------------|--0------------|--1------------|
--0------------|--3------------|--2------------|---------------|--0------------|
--2------------|--0------------|--3------------|--1------------|--2------------|
--3------------|--3------------|--3------------|--2------------|--0------------|
---------------|---------------|--1------------|---------------|---------------|


  Bsus2           Am7             Bsus2           Am7             Bsus2         
--2------------|--0------------|--2------------|--0------------|--2------------|
--2------------|--1------------|--2------------|--1------------|--2------------|
--4------------|--0------------|--4------------|--0------------|--4------------|
--4------------|--2------------|--4------------|--2------------|--4------------|
--2------------|--0------------|--2------------|--0------------|--2------------|
---------------|---------------|---------------|---------------|---------------|


  F               G                              G                            
--1------------|--3------------|--------------|--3------------|--------------|
--1------------|--0------------|--------------|--0------------|--------------|
--2------------|--0------------|--------------|--0------------|--------------|
--3------------|--0------------|--------------|--0------------|--------------|
--3------------|--2------------|--------------|--2------------|--------------|
--1------------|--3------------|--------------|--3------------|--------------|


  C              
--0------------||
--1------------||
--0------------||
--2------------||
--3------------||
---------------||

The chord voicings might not be the exact as used in the song, but the solo guitar is 99% accurate..

Tap to rate this tab
 
# A B C D E F G H I J K L M N O P Q R S T U V W X Y Z