Song name
# A B C D E F G H I J K L M N O P Q R S T U V W X Y Z

Steve Vai - For The Love Of God Acoustic tab

Help us improve GuitareTab! Take a short survey!
-------------------------------------------------------------------------------
	Steve Vai - For the love of god(arrenged for acoustic fingerstyle)
-------------------------------------------------------------------------------
Tabbed by:
Email:

Tuning:

e|-------------------------0------------------------0--------------------0---|
B|------------0---------------0------------------------3--0----0-------------|
G|---------2------------0--------0--------------------------0--------------2-|
D|------0------------4--------------4----------4---------------------3-------|
A|--0h2----------2-------------------------2----------------------3----------|
E|------------0-------------------------0----------------------1-------------|

e|-------------------------------------------------------------------------------|
B|-------------------------------------------------------------------------------|
G|-------------------------------------------------------------------------------|
D|---------3---------------3-----------------------------------------------------|
A|-----3--------------3-------3--------------------------------------------------|
E|--1-------------1--------------------------------------------------------------|


ok this is it.this my version for this great song.of course don't expect the wholle song 
would be insane).it sounds great on a classic guitar.if there are any mistakes i'm 
sorry because i write this by memory.
===============================================================================
Related for For The Love Of God Acoustic tab