Song name
# A B C D E F G H I J K L M N O P Q R S T U V W X Y Z

Steve Vai - Additude Song tab

pm--palm mute
ah--artifical harmonic(mabey? its hard to tell)
po--pull off
(b_)--bend to
t--tap
   tabbed by jimmy
    not the whole song but
      all i can get
        right now

                pm....... ah......... pm.........ah..........

e :------------------------------------------------------------|do this
B :------------------------------------------------------------|a bunch
G :------------------------------------------------------------|of times
D :------------------------------------------------------------|
A :------------------------------------------------------------|
E :-4--3--2--0--4--3--2-0--4--3--2--0--4--3--2--0--4--3--2--0--|


e :-------------------------------------------------------------|really
B :--5--5--5--5--6--6--7----------------------------------------|fast
G :--5--5--5--5--6--6--7----------------------------------------|
D :--5--5--5--5--6--6--7----------------------------------------|
A :--3--3--3--3--4--4--5----------------------------------------|
E :-------------------------------------------------------------|

     hold bend and            hold bend
   relase during tap       and add vibirato
                              during tap
e :-------------------------------------------------------------|this
B :-------------------------13(b15---t15~~~~--------------------|is the
G :--2(b4)---t14--po9~~~----------------------------------------|first
D :-------------------------------------------------------------|add on
A :-------------------------------------------------------------|
E :-------------------------------------------------------------|
Tap to rate this tab
# A B C D E F G H I J K L M N O P Q R S T U V W X Y Z