Song name
# A B C D E F G H I J K L M N O P Q R S T U V W X Y Z

Steve Vai - Rondo Alla Turca Bluesy Ending tab

-------------------------------------------------------------------------------
			     Rondo Alla Turca Bluesy Ending - Steve Vai
-------------------------------------------------------------------------------
Tabbed by: Leonidas
Email: lionfalcon@web.de

Tuning: Standart

This was taken from the film "crossroads" where the protagonist plays the rondo at his 
class and gives it a special bluesy ending wich perfectly fits into the piece at all.
didnt find tabs around the internet so i tabbed this one by ear.
suggestions welcome ;)

e|------------5----7p5----/8-------7--------5----------|
B|--------/7-------------------10------9----------5----|
G|------------------------/8-------7--------5h6--------|
D|-----------------------------------------------------|
A|-----------------------------------------------------|
E|-----------------------------------------------------|

e|-----------------------------------------------5-----|
B|--------10-----------10------------10------5---------|
G|----9-------9---8--------8-----7-------7---5h6-------|
D|---11------11--10--------10----9-------9-------------|
A|-------------------------------------------0---------|
E|-----------------------------------------------------|

e|-8b-5-------------------------------------------5----|
B|-------5--3h4p3p1-----------------------------5------|
G|-------------------2p0--------------------5h6-----6.-|
D|-----------------------2p0------2-----------------7.-|
A|----------------------------3/4---3p0----------------|
E|--------------------------------------3/5------------|

im not quite convinced bout the last passage :P so please send suggestions to my email 
;)
Tap to rate this tab
 
# A B C D E F G H I J K L M N O P Q R S T U V W X Y Z