Steve Vai - Halo 2 Theme tab

e|--------------------------------------------------------------------------|
B|--------------------------------------------------------------------------|
G|--1/9----9h11-12-14---11h12-9h11-7h9~-------------------------------------|
D|--------------------------------------------------------------------------|
A|--------------------------------------------------------------------------|
E|--------------------------------------------------------------------------|

e|------------------------------------------------------------------------|
B|------------------------------------------------------------------------|
G|------------------------------------------------------------------------|
D|---------------9-------11------12-------14---14-12-11-------------------|x2
A|---------------7-------9-------10-------12---12-10-9--------------------|
E|--10/3---0-0-0---0-0-0---0-0-0----0-0-0---------------------------------|

e|--------------------------------------------------------------------------|
B|--15b12-17b14-18b15-20b17---22-20-19-17-15-17--17p15/12--------------15-17|
G|--------------------------------------------------------b14-14p13---------|
D|------------------------------------------------------------------14------|
A|--------------------------------------------------------------------------|
E|--------------------------------------------------------------------------|

e|------------------------------------------9-------------------------------|
B|--12-12-14-15--12-15-14-12-10---10--10-12---12----------------------------|
G|------------------------------9---9------------9--------------------------|
D|--------------------------------------------------------------------------|
A|--------------------------------------------------------------------------|
E|--------------------------------------------------------------------------|

e|-----------------12-----------------12------------------------------------|
B|--12-12-14-b15------15-14-15-14-12-----15-14-15-14-12---------------------|
G|--------------------------------------------------------------------------|
D|--------------------------------------------------------------------------|
A|--------------------------------------------------------------------------|
E|--------------------------------------------------------------------------|

e|--14-------17-17-17-17--14------17-12-14-15/17-17-------------------------|
B|----15--------------------15----------------------------------------------|
G|------16--------------------16--------------------------------------------|
D|--------------------------------------------------------------------------|
A|--------------------------------------------------------------------------|
E|--------------------------------------------------------------------------|

e|------------------------------------------------21-19-17-15-15-14-15-17-15|
B|--15-17-19-17-19-20-19-17-19-17-15-14-15-17-24----------------------------|
G|--------------------------------------------------------------------------|
D|--------------------------------------------------------------------------|
A|--------------------------------------------------------------------------|
E|--------------------------------------------------------------------------|

e|-----15---15----15----15----15----15----15----15-17-18-20-17--------------|
B|--18---------18----------18----------18-----------------------------------|
G|-------17----------17----------17----------17-----------------------------|
D|--------------------------------------------------------------------------|
A|--------------------------------------------------------------------------|
E|--------------------------------------------------------------------------|

e|-----17---17----17----17----17----17----17----17-17-15-14-15-14-----------|
B|--20---------20----------20----------20-------------------------17--------|
G|-------19----------19----------19----------19-----------------------------|
D|--------------------------------------------------------------------------|
A|--------------------------------------------------------------------------|
E|--------------------------------------------------------------------------|

e|------------------------------------------------------------------------|
B|------------------------------------------------------------------------|
G|----------------------9-9-----------------------------------------------|
D|----9-9-9---12-12-12--7-7-----12-12-11-9--------------------------------|x2
A|----7-7-7---10-10-10--x-x-----10-10-9--7--------------------------------|
E|--0---------9--9--9---8-8---0-------------------------------------------|

e|--------------------------------------------------------------------------|
B|--------------------------------------------------------------------------|
G|--------------------------------------------------------------------------|
D|--------9-------11------12-------14---14-12-11----------------------------|
A|--------7-------9-------10-------12---12-10-9-----------------------------|
E|--0-0-0---0-0-0----0-0-0---0-0-0------------------------------------------|

e|-----15---15----15----15----15----15----15----15-17-18-20-17--------------|
B|--18---------18----------18----------18-----------------------------------|
G|-------17----------17----------17----------17-----------------------------|
D|--------------------------------------------------------------------------|
A|--------------------------------------------------------------------------|
E|--------------------------------------------------------------------------|

e|-----17---17----17----17----17----17----17----17-17-15-14-15-14-----------|
B|--20---------20----------20----------20-------------------------17--------|
G|-------19----------19----------19----------19-----------------------------|
D|--------------------------------------------------------------------------|
A|--------------------------------------------------------------------------|
E|--------------------------------------------------------------------------|
Tap to rate this tab
 
# A B C D E F G H I J K L M N O P Q R S T U V W X Y Z