Song name
# A B C D E F G H I J K L M N O P Q R S T U V W X Y Z

Steve Vai - The Moon And I tab

Here is the simple, yet beautiful intro to this amazing song.
The creativity and imagination of Steve Vai is truly endless.  Enjoy!

Em7                                                    Em7

0------------0------------------------2----------------0-----------0--------------2------|
3--------------------3-------------------------3-------3-----------------3------------3--|
0------------------------------2-----------------------0------------------------2--------|
2------------------------------------------------------2---------------------------------|
2------------------------------------------------------2---------------------------------|
0------------------------------------------------------0---------------------------------|


Em7                                                    Em7

0------------0------------------------2----------------0-----------0--------------2------|
3--------------------3-------------------------3-------3-----------------3------------3--|
0------------------------------2-----------------------0------------------------2--------|
2------------------------------------------------------2---------------------------------|
2------------------------------------------------------2---------------------------------|
0------------------------------------------------------0---------------------------------|

For the most part, it repeats that pattern; varying only slightly.
Tap to rate this tab
 
# A B C D E F G H I J K L M N O P Q R S T U V W X Y Z