Song name
# A B C D E F G H I J K L M N O P Q R S T U V W X Y Z

Steve Vai - Velorum tab

Hey there!

This is 'Velorum' from 'The Story of Light' by 'Steve Vai'

This is my very first tab, so sorry for the mistakes!

Tuning: B E a d g b e (7-String Guitar)
        
All rights go to Steve Vai and its label 



e|-------------------------------------------------------------------|
b|-------------------------------------------------------------------| 
g|------------------------(Played 3 times)---------------------------|  
d|-----------------------------------------------------4-------2-----|
a|------------------------------------------5--------5-------3-------| 
E|-7---------5-6-7----------55-66-7-----------5----5-------3---------|
B|---0-5-6-7-------0-5-6-77---------0-5-6-7------3-------1-----------|

e|-17^19------14---16---11----8-------17^19-\-------|
b|------------17^--19^--14^--11^-------------\------|
g|--------------------------------------------\-----|
d|---------------------------------------------\----|
a|--------------------------------------------------|
E|--------------------------------------------------|
B|--------------------------------------------------|

e|--------------------------------------------------------------------------|
b|--------------------------------------------------------------------------|
g|--------------------------------------------------------------------------|
d|--------------------------------------------------------------------------|
a|--------------------------------------------------------------------------|
E|-------------------------------------------------------------------3-4-5--|
B|00-0--0-0-00-0--0000-00-0--0-0-00-0--0000-00-0--0-0-00-0--0000-00-0-------|

e|-17^19--17^19-17-14---------------15^-15^-15^-14-12-12----14-12-12--|
b|--------------------17^-17-15--------------------------15-----------|
g|------------------------------16------------------------------------|
d|--------------------------------------------------------------------|
a|--------------------------------------------------------------------|
E|--------------------------------------------------------------------|
B|--------------------------------------------------------------------|
Tap to rate this tab
# A B C D E F G H I J K L M N O P Q R S T U V W X Y Z