Song name
# A B C D E F G H I J K L M N O P Q R S T U V W X Y Z

Steve Vai - Racing The World tab

Steve Vai - Racing The World
Tuning: Standard
Tabbed by: malicedix

Couple of notes I'm unsure about but should be close.

Intro

e|-------------------------------------------|---------------------------------------------------|
B|-------------------------10-----------10~--|---------------------------------8-----6~~---------|
G|--------9~------12~~--11----11---------9~--|--------9~--9/12-12/14~~-------10------8~~---------|
D|----7-7----7/10----------------12-14--12~--|----7-7-----7/10-10/12~~-----10------8-------------|
A|-------------------------------------------|---------------------------8-------6---------------|
E|-------------------------------------------|--------------------------------------------3^-p0--|

e|-------------------------------------------------------------------------------------------|
B|------------------------------------10-----------------------------------------------------|
G|-------99999------1212121212-12--11---11---------------------------------------------------|
D|---5/7-77777-7/10-1010101010-10----------12-14~-\\-----------------------------------------|
A|-------------------------------------------------------------------------------------------|
E|-------------------------------------------------------------------------------------------|


Lead

e|------------------------------------------------10/12--------------------------------------|
B|-12-10-8-10/12~------8-10--/12--8-------------8-------12~----8--/9\8-8~--------------------|
G|-------------------9--------------9-9~----7/9--------------9-------------------------------|
D|-------------------------------------------------------------------------------------------|
A|-------------------------------------------------------------------------------------------|
E|-------------------------------------------------------------------------------------------|

e|-12/14-14\12---------------------------------------------10/12-----------------------------|
B|----------------12/15-15/12-------8^10^8---------------8-------12---10/8--11--10-8---------|
G|-------------13---------------7/9--------9p7/9-9~----9-----------------------------10~-----|
D|-------------------------------------------------------------------------------------------|
A|-------------------------------------------------------------------------------------------|
E|-------------------------------------------------------------------------------------------|

e|-------------------------------------------------------------------------------------------|
B|-13--12-10-------15--13-12-------17--15-14-------19--17-16--------20-20^22~~---------------|
G|-----------12~-------------14~-------------16~-------------18~-----------------------------|
D|-------------------------------------------------------------------------------------------|
A|-------------------------------------------------------------------------------------------|
Tap to rate this tab
# A B C D E F G H I J K L M N O P Q R S T U V W X Y Z