Song name
# A B C D E F G H I J K L M N O P Q R S T U V W X Y Z

Steve Vai - Eugenes Trick Bag tab

E|---------------|
B|o-------------o|
G|---2h4p2h5p2---|
D|---------------|
A|o-------------o|
E|---------------|

|-----------0----8-12-8-5-0---------|-------------0-4-7-4-0-----------|
|---------1---10------------1-------|---------0-3-----------3-0-------|
|-------2---------------------2-----|-------1-------------------1-----|
|-----2-------------------------2---|---0-2-----------------------2-0-|
|-0-3-----------------------------3-|-2-------------------------------|
|-----------------------------------|---------------------------------|

|-------------0-3-5-3-0-----------|-----------1----10-13-10----1-----------|
|-----------2-----------2---------|---------3---10----------10---3---------|
|-------0-2---------------2-0-----|-------2------------------------2-------|
|-----2-----------------------2---|---0-3----------------------------3-0---|
|-0-4---------------------------4-|-0------------------------------------0-|
|---------------------------------|----------------------------------------|

|---------------------------|-----------------0---5-0-8-5-12-8-16~-|
|-------------6-------------|-------------1-----1------------------|
|---------4-7---7-4---------|---------2-----2----------------------|
|-----3-6-----------6-3-----|-----2-----2--------------------------|
|-2-5-------------------5-2-|-0-3---3------------------------------|
|---------------------------|--------------------------------------|

|------------------------------17-15-13---------------|
|o-----13-17-13----15-17-15-13----------17-15-13-----o|
|---14----------16-------------------------------16---|
|-----------------------------------------------------|
|o---------------------------------------------------o|
|-----------------------------------------------------|

|-------------17-15-13----------19-17-15----------|
|----14-17-14----------17-14-15----------18-17-15-|
|-14----------------------------------------------|
|-------------------------------------------------|
|-------------------------------------------------|
|-------------------------------------------------|

|----------------------------17-15-13----------|
|-------15----18-17-15----------------17-15-13-|
|----16----16----------16-17-------------------|
|-17-------------------------------------------|
|----------------------------------------------|
|----------------------------------------------|

|-------------------------------------------|
|-------------18-17-15----------18-15-------|
|----14-17-14----------17-14-16-------17-14-|
|-15----------------------------------------|
|-------------------------------------------|
|-------------------------------------------|

|-17-------16/14----14/12----12/11----11/9----9/7---7/5---5/4---4/2-|
|----16/17-------16-------14-------12------11-----9-----7-----5-----|
|-------------------------------------------------------------------|
|-------------------------------------------------------------------|
|-------------------------------------------------------------------|
|-------------------------------------------------------------------|


|---0-7p4-----|---0-14p11----0-17p14----0-12p9----0-7p4-----|
|o--------5--o|o----------12---------15--------10-------5--o|
|-------------|---------------------------------------------|
|-------------|---------------------------------------------|
|o-----------o|o-------------------------------------------o|
|-------------|---------------------------------------------|


|---0-19p16----0-7p4---0-17p14----0-5p2-----|
|o----------17-------5---------15-------3--o|
|-------------------------------------------|
|-------------------------------------------|
|o-----------------------------------------o|
|-------------------------------------------|


|---0-22p19----0-10p7---0-20p17----0-8p5-----|
|o----------20--------8---------18-------6--o|
|--------------------------------------------|
|--------------------------------------------|
|o------------------------------------------o|
|--------------------------------------------|

|-22-19-------19----------------------------------------------------------|
|-------21-18----21-18----21-18-------18----------------------------------|
|----------------------19-------19-16----19-16----19-16-------16----------|
|----------------------------------------------18-------18-15----18-15----|
|----------------------------------------------------------------------17-|
|-------------------------------------------------------------------------|

|----------------------------|-------------------------------------------24-|
|----------------------------|------------------------------------17--------|
|----------------------------|-2----------------------------9---------------|
|-18-15-------15-------------|-2-2----------------------------/14----/21----|
|-------17-14----17-14-------|-0-2--------------------7/2/7-----------------|
|----------------------16-17-|---0-000000000000000000-----------------------|

|----------------------------------------10-12-13-16-17-19-20-22-24-24b-24b-|
|-----------------------------9-10-12-13------------------------------------|
|----------------------7-9-10-----------------------------------------------|
|-------------6-7-9-10------------------------------------------------------|
|-------5-7-8---------------------------------------------------------------|
|-5-7-8---------------------------------------------------------------------|

|-17-| <-The closest that you're going to get to hitting that last note.
|-14-|
|-14-|
|-14-|
|----|
|----|
Tap to rate this tab
# A B C D E F G H I J K L M N O P Q R S T U V W X Y Z