Song name
# A B C D E F G H I J K L M N O P Q R S T U V W X Y Z

Steve Vai - Elephant Gun tab

Intro
  Q=240
 4/4
  Gtrs I, II
                                            PM----|
  E E E E E E E E   E E E E E E E  E     Q  Q  Q  Q
|-----------------|-------------------||-------------|
|-8-8---8-8---8-8-|---8-8---8-9---10\-||-------------|
|-7-7---7-7---7-7-|---7-7---7-8----9\-||-------------|
|-6-6---6-6---6-6-|---6-6---6-7----8\-||----4--2--4--|
|-7-7---7-7---7-7-|---7-7---7-8----9\-||----4--2--4--|
|-----------------|-------------------||-------------|


  PM-|                                          PM
                                       |--3---|
  Q  Q  E Q.     E E E E E E E E      +E  +E  E Q  E Q.
|--------------|--------------------|---------------------|
|--------------|--------------------|---------------------|
|-------2------|---------------4b5==|=(4)r(4)-2----2------|
|-4--2--2-2----|---4---2---4---4b5==|=(4)r(4)-2-4--2-4----|
|-4--2----2----|---4---2---4--------|-----------4----4----|
|--------------|--------------------|---------------------|


                                                                     \7
    PM  PM  PM
  E E E E E E E E   +E  E Q  E Q.     a    +E  +E  E E +Q    Q      +W
|-----------------|-----------------|-----------------------<5>--|-(<5>)----||
|-----------------|-----------------|-4b5==(4)r(4)p2-4-(4)--<5>--|-(<5>)----||
|-----------------|----------2-4----|-4b5==(4)r(4)p2-4-(4)-------|----------||
|---4---2---4---4-|-(4)-4-2--2-4----|----------------------------|----------||
|---4---2---4---4-|-(4)-4-2---------|----------------------------|----------||
|-----------------|-----------------|----------------------------|----------||


 Verse
                \7
                ~~~~~~~~~~~~~~~~~~~~~~~~~~~~~~~
   W           +W            +W            +W
|-----------|-------------|-------------|---------|
|-10--------|-(10)--------|-(10)--------|-(10)----|
|--9--------|--(9)--------|--(9)--------|--(9)----|
|--8--------|--(8)--------|--(8)--------|--(8)----|
|--9--------|--(9)--------|--(9)--------|--(9)----|
|-----------|-------------|-------------|---------|


  PM-------|       PM-|     PM-----------|
  Q  Q  Q  Q    Q  Q  E E E E   Q  Q  Q  Q
|-------------|---------------|-------------|
|-------------|-2-------4-----|-------------|
|-------------|-2-------4-----|-------------|
|-------------|-2-------4---4-|-------------|
|-------2--4--|----4--2-------|-------2--4--|
|-2--5--------|---------------|-2--5--------|


     PM-|
  Q  Q  E E E E   +W           +Q.   E +H           W
|---------------|------------|--0----------------|-------|
|-2-------4---2-|-(2)--------|-(2)---2-(2)-------|-/4----|
|-2-------4---2-|-(2)--------|-(2)-----(2)-(2)---|-/4----|
|-2-------4---2-|-(2)--------|-(2)---------------|-/4----|
|----4--2-------|------------|-------------------|-------|
|---------------|------------|-------------------|-------|
                                H      +E  +Q.


           ~~~~     PM-------|       PM-|
  +Q.   E +H        Q  Q  Q  Q    Q  Q  E E Q
|-----------------|-------------|--------------|
|-(4)---4-(4)\----|-------------|--------------|
|-(4)-------------|-------------|-2-------4----|
|-(4)-------------|-------------|-2-------4----|
|-----------------|-------2--4--|-2--4--4------|
|-----------------|-2--5--------|--------------|
  +W


                                            Pre-Chorus
   T    T      T    T          T                  PM----|
   E E  E E E  E E  E   E E E  E  +Q.   E    +Q   Q  Q  Q
|------------------21p|=4p3---------------||---------------|
|------22p4p2---------|-----4-22-(22)-----||---------------|
|-24p4--------24p4----|-----------------4-||-(4)--2--4--2--|
|---------------------|-----------------4-||-(4)--2--4--2--|
|---------------------|-------------------||---------------|
|---------------------|-------------------||---------------|


  PM------|                                  ~~~~~~~~~
  Q  Q  E Q  E   +Q   Q  Q  Q    Q  Q  E Q   E    +Q    Q    Q    Q
|--------------|---------------|----------------|----------------------|
|------------4-|-(4)--2--4--2--|-4--2--4--------|----------------------|
|-4--2--4----4-|-(4)--2--4--2--|-4--2--4--------|----------------------|
|-4--2--4-6----|---------------|----------------|----------------------|
|---------6----|---------------|---------4--[6]-|-(6)--[4]--[6]--[4]---|
|--------------|---------------|----------------|----------------------|


   Q    Q   E a E E E   +Q   Q  Q  Q    Q  Q  E Q  E
|---------------------|---------------|--------------|
|-------------------7-|-(7)--5--7--4--|-7--5--7-8--9-|
|-------------------7-|-(7)--5--7--4--|-7--5----8--9-|
|---------------------|---------------|--------------|
|-[6]--[4]--6-4h6-----|---------------|--------------|
|---------------------|---------------|--------------|


   ~~~~                    ~~~~~
  +Q    H.         a       W            E E E E E E E E   E E E E E E E  E
|---------------|---------14----------|-----------------|---8-8------------||
|-(9)\----------|---------14----------|-8-8---8-8---8-8-|---8-8---8-9---10-||
|-(9)\----------|-14b16==(14)r--------|-7-7---7-7---7-7-|---7-7---7-8----9-||
|---------------|---------------------|-6-6---6-6---6-6-|---6-6---6-7----8-||
|---------------|---------------------|-7-7---7-7---7-7-|---7-7---7-8----9-||
|-------0-------|---------------------|-----------------|------------------||


 Chorus
          PM------------|             PM  PM  PM
   +E   E Q  Q  Q    Q  Q  E Q.     E E E E E E E a    +E
|------------------|--------------|-------------------------|
|-(10)\------------|--------------|-------------------------|
|--(9)\------------|-------2-4----|-----------4---4b5==(4)r=|
|--(8)\---4--2--4--|-4--2--2-4----|---4---2---4---4b5==(4)r=|
|--(9)----4--2--4--|-4--2---------|---4---2-----------------|
|------------------|--------------|-------------------------|


                      PM  PM  PM     PM-----|
  +E  E Q  E Q.     E E E E E E Q    E E Q  Q  Q
|-----------------|----------------|--------------|
|-----------------|----------------|--------------|
|-(4)p2----2------|----------------|--------2-----|
|-(4)p2-4--2-4----|---4---2---4----|-4-4-2--2--4--|
|-------4----4----|---4---2---4----|-4-4-2-----4--|
|-----------------|----------------|--------------|


                                   \1/
                    ~~~~~~~~~~~~~~~~~~~       ~~~           PM-|
  a    +E  +E  E E +H        E  E  Q     +E   Q.     E Q.   Q  Q
|-------------------------|------------------------|--------------|
|-4b5==(4)r(4)p2-4-(4)----|-12p10h12----(12)-10----|--------------|
|-4b5==(4)r(4)p2-4-(4)----|------------------------|--------------|
|-------------------------|------------------------|---4----2--4--|
|-------------------------|------------------------|---4----2--4--|
|-------------------------|------------------------|--------------|


  PM-|             PM  PM  PM
  Q  Q  E Q.     E E E E E E E a    +E    +E  E Q  E Q.
|--------------|------------------------|-----------------|
|--------------|------------------------|-----------------|
|-------2------|---------------4b5==(4)r|=(4)p2----2------|
|-4--2--2-4----|---4---2---4---4b5==(4)r|=(4)p2-4--2-4----|
|-4--2----4----|---4---2---4------------|-------4----4----|
|--------------|------------------------|-----------------|


    PM  PM  PM     PM-----|                               ~~
  E E E E E E Q    E E Q  Q  Q    a    +E  E E E +H       W
|----------------|--------------|-----------------------|-x\----||
|----------------|--------------|-4b5==(4)r4-2-4-(4)----|-x\----||
|----------------|--------2-----|-4b5==(4)r4-2-4-(4)----|-------||
|---4---2---4----|-4-4-2--2--4--|-----------------------|-------||
|---4---2---4----|-4-4-2-----4--|-----------------------|-------||
|----------------|--------------|-----------------------|-------||


 Verse
   W           +W            Q  E  E  +Q     Q      +W
|-----------|-------------|-----------------11---|-(11)----|
|-10--------|-(10)--------|-------12-(12)--(12)--|-(12)----|
|--9--------|--(9)--------|-11-------------------|-(11)----|
|-----------|-------------|----------------------|---------|
|--9--------|--(9)--------|----------------------|---------|
|-----------|-------------|----------------------|---------|
                             W


   E  E  E  E  E  E E  E   E  Q.    +H
|------------------------|-----------------|
|-13s14-------17S16---16-|---13----(13)----|
|-13s14-16-14-17S16---16-|---13----(13)----|
|-13s14-------17S16---16-|---13----(13)----|
|------------------------|-----------------|
|------------------------|-----------------|


              T                               T
        |----------------------5----------------------|
  a    +Q     a      +Q     Q   a      +Q     a      +Q
|-----------------------------------------------------------|
|------------------------------17b19==(17)rh=19b21==(19)rp==|
|-4b6==(4)r--16b18==(16)rp=14-------------------------------|
|-----------------------------------------------------------|
|-----------------------------------------------------------|
|-----------------------------------------------------------|


                     T
   Q   a      +Q     H      W           Q   E E +Q    Q      H.      Q
|-----17b19==(17)r--22----|----------|--0-----------------|-(0)---------|
|-14----------------------|----------|--------2-(2)--(2)--|-/4----------|
|-------------------------|----------|----------------2---|--4-------4--|
|-------------------------|-2--------|-(2)----------------|-/4----------|
|-------------------------|-0--------|-(0)----------------|-(0)---------|
|-------------------------|----------|--------------------|-------------|
                                        W                    W


                    T     T        T     T          T        T
  +Q.   E +H        E  E  E  E  E  E  E  E    E  E  E  E  E  E  E  E
|-(0)------------|----------------------22p|=16p14-------------------|
|-(4)---4-(4)----|-------22p16p14----------|-------22p16p14----------|
|-(4)------------|----------------24p16----|----------------24p16p14-|
|-(4)------------|-24p16-------------------|-------------------------|
|-(0)------------|-------------------------|-------------------------|
|----------------|-------------------------|-------------------------|
  +W


                                                   Pre-Chorus
   T     T        T     T             T                  PM----|
   E  E  E  E  E  E  E  E    E  E  E  E  +Q.   E    +Q   Q  Q  Q
|----------------------24p|=16p14----24-(24)-----||---------------|
|-------22p16p14----------|-------16-22-(22)-----||---------------|
|----------------24p16----|--------------------4-||-(4)--2--4--2--|
|-24p16-------------------|--------------------4-||-(4)--2--4--2--|
|-------------------------|----------------------||---------------|
|-------------------------|----------------------||---------------|


  PM------|
  Q  Q  E Q  E   +Q   Q  Q  Q    Q  Q  E Q  E
|--------------|---------------|--------------|
|------------4-|-(4)--2--4--2--|-4--2--4-2--4-|
|-4--2--4----4-|-(4)--2--4--2--|-4--2--4-2--4-|
|-4--2--4-6----|---------------|--------------|
|---------6----|---------------|--------------|
|--------------|---------------|--------------|


  +Q    Q    Q    Q      Q    Q    Q.    E    +Q    Q    Q    Q
|------<5>------------|---------------------|---------------------|
|-(4)--<5>--<7>--<7>--|-<7>--<7>--<7>-------|---------------------|
|-(4)--<5>--<7>--<7>--|-<7>--<7>--<7>-------|---------------------|
|-----------<7>--<7>--|-<7>--<7>--<7>-------|---------------------|
|---------------------|-----------------[5]-|-(5)--[3]--[5]--[3]--|
|---------------------|---------------------|---------------------|


                      ~~~~                   ~~~~~
   Q    Q   E Q  E   +H      H       a       W
|------------------|--------------|---------15------|
|------------------|--------------|---------15------|
|------------------|--------------|-14b16==(14)r----|
|-----------7-8--9-|-(9)\---------|-----------------|
|-[5]--[3]--5-6--7-|-(7)\---------|-----------------|
|------------------|---------0----|-----------------|


                               Chorus
                                     PM------------|
  |-3-| |-3-|
  Q Q Q Q Q Q   Q  Q  Q  E E    +Q   Q  Q  Q    Q  Q  E Q.
|-------------|--------------||---------------|---------------|
|---8-8-8-8-8-|-8------------||---------------|---------------|
|---7-7-7-7-7-|-7------------||---------------|-------2-------|
|---6-6-6-6-6-|-6----------4-||-(4)--2--4--2--|-4--2--2-4-----|
|---7-7-7-7-7-|-7----------4-||-(4)--2--4--2--|-4--2----4-----|
|-0-----------|--------------||---------------|---------------|


                                               PM  PM  PM     PM-----|
  E E E E E E E a    +E    +E  E Q  E Q.     E E E E E E Q    E E Q  Q  Q
|------------------------|-----------------|----------------|--------------|
|------------------------|-----------------|----------------|--------------|
|---------------4b6==(4)r|=(4)p2----2------|----------------|--------2-----|
|---4---2---4---4b6==(4)r|=(4)p2-4--2-4----|---4---2---4----|-4-4-2--2--4--|
|---4---2---4------------|-------4----4----|---4---2---4----|-4-4-2-----4--|
|------------------------|-----------------|----------------|--------------|


                                                  \7
                                                         PM------|
                            |-3-| |-3-| |-3-| |-3-|
  a    +E  +E  E E +H       E E E E E E E E E E E E    E Q.   Q  Q
|-------------------------|--------------------------|---------------|
|-4b6==(4)r(4)p2-4-(4)----|-5p4p2--------------------|---------------|
|-4b6==(4)r(4)p2-4-(4)----|-------4p2p1-4p2p1--------|---------------|
|-------------------------|--------------------------|---4----2--4---|
|-------------------------|-------------------4p2p0--|---4----2--4---|
|-------------------------|--------------------------|---------------|


  PM-|             PM  PM  PM
  Q  Q  E Q.     E E E E E E E a    +E    +E  E Q  E Q.
|--------------|------------------------|-----------------|
|--------------|------------------------|-----------------|
|-------2------|---------------4b6==(4)r|=(4)p2----2------|
|-4--2--2-4----|---4---2---4---4b6==(4)r|=(4)p2-4--2-4----|
|-4--2----4----|---4---2---4------------|-------4----4----|
|--------------|------------------------|-----------------|


    PM------|      PM-----|
  E E E E E E Q    E E Q  Q  Q    a    +E  +E  E E +Q   a    +E  +E
|----------------|--------------|-------------------------------------|
|----------------|--------------|-4b6==(4)r(4)p2-4-(4)--4b6==(4)r(4)p=|
|----------------|--------2-----|-4b6==(4)r(4)p2-4-(4)--4b6==(4)r(4)p=|
|---4---4---4----|-4-4-2--2--4--|-------------------------------------|
|---4---4---4----|-4-4-2-----4--|-------------------------------------|
|----------------|--------------|-------------------------------------|


               |--3---|
  E E Q  a    +E  +E  E Q
|--------------------------|
|-2-4----4b5==(4)r(4)p2-4--|
|-2-4----4b5==(4)r(4)p2-4--|
|--------------------------|
|--------------------------|
|--------------------------|


                                                    |--3---|
  a    +E  +E  E E +Q   a    +E  +E    E E Q  a    +E  +E  E Q
|------------------------------------|--------------------------||
|-6b7==(6)r(6)p4-6-(6)--6b7==(6)r(6)p|=4-6----6b7==(6)r(6)p4-6--||
|-6b7==(6)r(6)p4-6-(6)--6b7==(6)r(6)p|=4-6----6b7==(6)r(6)p4-6--||
|------------------------------------|--------------------------||
|------------------------------------|--------------------------||
|------------------------------------|--------------------------||


   Billy Sheehan Bass Solo
                             >
    W          +W            W          +W      4x
||-----------|------------|-----------|---------||
||o-8--------|-(8)--------|-\6--------|-(6)----o||
||--8--------|-(8)--------|-\6--------|-(6)-----||
||--8--------|-(8)--------|--8--------|-(8)-----||
||o----------|------------|-----------|--------o||
||-----------|------------|-----------|---------||


 Steve Vai Guitar Solo
   |--3--|  |--3--|  |--3--|  |--3--|    |--3--|  |--3--|  |--3--|  |--3--|
   E  E  E  E  E  E  E  E  E  E  E  E    E  E  E  E  E  E  E  E  E  E  E  E
|-14h17p14----14h17-14h17p14----14h17-|-14h17p14----14h17-14h17p14----14h19-|
|----------17----------------17-------|----------17----------------17-------|
|-------------------------------------|-------------------------------------|
|-------------------------------------|-------------------------------------|
|-------------------------------------|-------------------------------------|
|-------------------------------------|-------------------------------------|


   |--3--|  |--3--|  |--3--|  |--3--|    |--3--|  |--3--|  |--3--|  |--3--|
   E  E  E  E  E  E  E  E  E  E  E  E    E  E  E  E  E  E  E  E  E  E  E  E
|-14h19p14----14h19-14h19p14----14h19-|-14h19p14----14h19-14h19p14----14h19-|
|----------17----------------17-------|----------17----------------17-------|
|-------------------------------------|-------------------------------------|
|-------------------------------------|-------------------------------------|
|-------------------------------------|-------------------------------------|
|-------------------------------------|-------------------------------------|


   |--3--|  |--3--|  |--3--|  |--3--|    |--3--|  |--3--|  |--3--|  |--3--|
   E  E  E  E  E  E  E  E  E  E  E  E    E  E  E  E  E  E  E  E  E  E  E  E
|-14h17p14----14----------------------|-------------------------------------|
|----------17----17-14h17p14----14h17-|-14h17p14----14h17-14h17p14----14h17-|
|----------------------------17-------|----------17----------------17-------|
|-------------------------------------|-------------------------------------|
|-------------------------------------|-------------------------------------|
|-------------------------------------|-------------------------------------|


   |--3--|  |--3--|  |--3--|  |--3--|    |--3--|  |--3--|              |--3--|
   E  E  E  E  E  E  E  E  E  E  E  E    E  E  E  E  E  E  S  S  S  S  E  E  E
|-14h17p14----14----------------------|----------------------------------------|
|----------17----17-14h17p14----14----|----------------------------------------|
|----------------------------17----17s|=16-14----14----------------------------|
|-------------------------------------|-------16----16-14s13h14p13----13-------|
|-------------------------------------|----------------------------16----16p14-|
|-------------------------------------|----------------------------------------|


   |--3--|  |--3--|  |--3--|  |--3--|    |--3--|  |--3--|  |--3--|  |--3--|
   E  E  E  E  E  E  E  E  E  E  E  E    E  E  E  E  E  E  E  E  E  E  E  E
|-------------------------------------|-------------------16-------16-17-19-|
|-------------------------------------|-16-17-19-16-17-19----17-16----------|
|-------------------13-14-16-14-16-18-|-------------------------------------|
|----------13-14-16-------------------|-------------------------------------|
|-12-14-12----------------------------|-------------------------------------|
|-------------------------------------|-------------------------------------|


   a      +Q.     a      +E   +Q     a      +Q
|-19b21==(19)r---19b21==(19)-(19)r--19b21==(19)---|
|-------------------------------------------------|
|-------------------------------------------------|
|-------------------------------------------------|
|-------------------------------------------------|
|-------------------------------------------------|


                        T     T           T
                  |--3--|  |--3--|  |--3--|  |--3--|
   +W             E  E  E  E  E  E  E  E  E  E  E  E
|-(19)r--------|-17h19h21p19p17p14h17h19h21p19p17p14-|
|--------------|-------------------------------------|
|--------------|-------------------------------------|
|--------------|-------------------------------------|
|--------------|-------------------------------------|
|--------------|-------------------------------------|


         T                 T
   |--3--|  |--3--|  |--3--|  |--3--|
   E  E  E  E  E  E  E  E  E  E  E  E
|-17h19h21p19p17p14h17h19h21p19p17p14-|
|-------------------------------------|
|-------------------------------------|
|-------------------------------------|
|-------------------------------------|
|-------------------------------------|


  Gtr I
         T                 T                   T           T
   |--3--|  |--3--|  |--3--|  |--3--|    |--3--|  |--3--|
   E  E  E  E  E  E  E  E  E  E  E  E    E  E  E  E  E  E  H
|-17h19h21p19p17p14h17h19h21p19p17p14-|-17h19h21p19p17p14-24----||
|-------------------------------------|-------------------------||
|-------------------------------------|-------------------------||
|-------------------------------------|-------------------------||
|-------------------------------------|-------------------------||
|-------------------------------------|-------------------------||
|
| Gtr II
|        T                 T                   T           T
|  |--3--|  |--3--|  |--3--|  |--3--|    |--3--|  |--3--|
|  E  E  E  E  E  E  E  E  E  E  E  E    E  E  E  E  E  E  H
|-------------------------------------|-------------------------||
|-14h17h19p17p14p12h14h17h19p17p14p12-|-14h17h19p17p14p12-17----||
|-------------------------------------|-------------------------||
|-------------------------------------|-------------------------||
|-------------------------------------|-------------------------||
|-------------------------------------|-------------------------||


 Outro
  Gtrs I, II
  PM--------------------|
  Q  Q  Q  Q    Q  Q  E Q  E   +Q   Q  Q  Q    Q  Q  E Q  E
|-------------|--------------|---------------|---------------|
|-------------|------------4-|-(4)--2--4--2--|-4--2--4-2--4--|
|-4--2--4--2--|-4--2--4----4-|-(4)--2--4--2--|-4--2--4-2--4--|
|-4--2--4--2--|-4--2--4-6----|---------------|---------------|
|-------------|---------6----|---------------|---------------|
|-------------|--------------|---------------|---------------|


  Q   Q    Q    Q      Q    Q    Q.    E    +Q    Q    Q    Q
|----<5>------------|---------------------|---------------------|
|-4--<5>--<7>--<7>--|-<7>--<7>--<7>-------|---------------------|
|-4--<5>--<7>--<7>--|-<7>--<7>--<7>-------|---------------------|
|---------<7>--<7>--|-<7>--<7>--<7>-------|---------------------|
|-------------------|-----------------[5]-|-(5)--[3]--[5]--[3]--|
|-------------------|---------------------|---------------------|


                                           \7
   Q    Q   E Q  E   +Q    Q  H      a    +W
|------------------|---------------|--------------|
|------------------|---------------|--------------|
|------------------|---------------|--------------|
|------------------|---------------|-2b3==(2)r----|
|-[5]--[3]--5-6--7-|-(7)\----------|--------------|
|------------------|----------0----|--------------|


  H.=H
                                           \7
                                           ~~~
  E E E E E E E E   E E E E Q  Q    Q  Q   H
|-----------------|---------------|--------------*|
|-8-8---8-8---8-8-|---8-8---8--8--|-8--8--20-----*|
|-7-7---7-7---7-7-|---7-7---7--7--|-7--7--19-----*|
|-6-6---6-6---6-6-|---6-6---6--6--|-6--6--18-----*|
|-7-7---7-7---7-7-|---7-7---7--7--|-7--7--19-----*|
|-----------------|---------------|--------------*|
Tap to rate this tab
# A B C D E F G H I J K L M N O P Q R S T U V W X Y Z