Song name
# A B C D E F G H I J K L M N O P Q R S T U V W X Y Z

Steve Vai - Bump And Grind tab

================================================================================
         Title : Bump And Grind
        Artist : David Lee Roth / Steve Vai
         Album : Eat 'em And Smile
================================================================================



intro main riff

E|-----------------------------------------|
B|-----------------------------------------|
G|-----------------------------------------|
D|-----------------------------------------|
A|--7p5-----------7p5-----------7p5--------|
E|-------7--5--7-------7--5--7-------7--5--|



E||--------------------------------------|
B||*-------------------------------------|
G||--------------------------------------|
D||--------------------------------------|
A||*----5--7p5--7--5-----5----7-----5h7--|
E||-------------------0----------0-------|


E|----------------------------------||------------------|
B|---------------------------------*||------------------|
G|----------------------------------||------------------|
D|----------------------------------||------------------|
A|--5--7-----7--5--7p5-------------*||----5p3-----------|
E|--------0-------------7--5--7-----||---------5--3--5--|
Tap to rate this tab
# A B C D E F G H I J K L M N O P Q R S T U V W X Y Z