Song name
# A B C D E F G H I J K L M N O P Q R S T U V W X Y Z

Steve Vai - I Know Youre Here tab

I know you're here
by: canon boi

Intro

E|--------------------|--------------------------|
B|------------12------|------------12-11-9-------|
G|----13----11--------|----13----11--------11----|
D|--11-----9----------|--11-----9-------------11-|
A|-9------------------|-9------------------------|
E|--------------------|--------------------------|


--------------------|--------------------------|
------------12------|------------12-11-9-------|
----13----11--------|----13----11--------11----|
--11-----9----------|--11-----9-------------11-|
-9------------------|-9------------------------|
--------------------|--------------------------|

E|--------------------|--------------------------|
B|------------12------|------------12-11-9-------|
G|----13----11--------|----13----11--------11----|
D|--11-----9----------|--11-----9-------------11-|
A|-9------------------|-9------------------------|
E|--------------------|--------------------------|

--------------------|--------------------------|
------------12------|------------12-11-9-------|
----13----11--------|----13----11--------11----|
--11-----9----------|--11-----9-------------11-|
-9------------------|-9------------------------|
--------------------|--------------------------|


E|--------------------|--------------------------|
B|------------12------|------------12-11-9-------|
G|----13----11--------|----13----11--------11----|
D|--11-----9----------|--11-----9-------------11-|
A|-9------------------|-9------------------------|
E|--------------------|--------------------------|


			~~               	             ~~
-----7-------------------11------12--------------------------19--|
--11---11--------------12---14-12---16-15------------------17----|
----------13/11------13-------------------16-15------18--16------|
----------------13-14------------------------------16------------|
-------------------------------------------------14--------------|
-----------------------------------------------------------------|

Vocal Part:

Chords for the vocal part:

F#......Bb m........B.....C#..... Repeat
E......G#.......C#......E7

chorus:

F#......Bb m........B.....Bm.....


     ~~              ~~                                        ~~
E|-----7-------------------11------12--------------------------19--|
B|--11---11--------------12---14-12---16-15------------------17----|
G|----------13/11------13-------------------16-15------18--16------|
D|----------------13-14------------------------------16------------|
A|-------------------------------------------------14--------------|
E|-----------------------------------------------------------------|

adlib:

    ^ ~~~~~~     ^h ~~~~   ~~~~~~
E|----------------------------------------------------------|
B|--17-------17--16-------16-------------14h16--------14h16-|
G|---------------------------------15h16--------15h16-------|
D|----------------------------------------------------------|
A|----------------------------------------------------------|
E|----------------------------------------------------------|

 		b                        b
--------------------------------14-16--14-16-14--|
-------14h16--14----------14-16------------------|
-15h16-----------16-15-16------------------------|
-------------------------------------------------|
-------------------------------------------------|
-------------------------------------------------|


    b                 b             b             b
E|--18-18---16h18h16h18---16h18h16h18---16h18h16h18-|
B|--------------------------------------------------|
G|--------------------------------------------------|
D|--------------------------------------------------|
A|--------------------------------------------------|
E|--------------------------------------------------|


	b                  b             b              b
-16-18-19-18-----16h18h16h18---16h18h16h18----16-18-19-19---|
------------------------------------------------------------|
------------------------------------------------------------|
------------------------------------------------------------|
------------------------------------------------------------|
------------------------------------------------------------|

    ^   ^
E|-19---19-----14h16h14h16--12h14h12h14--11h12h11h12-|
B|---------------------------------------------------|
G|---------------------------------------------------|
D|---------------------------------------------------|
A|---------------------------------------------------|
E|---------------------------------------------------|


-9h11h9h11------------------------------------------------|
------------12h14h12h14--11h12h11h12---9h11h9h11--7h9h7h9-|
----------------------------------------------------------|
----------------------------------------------------------|
----------------------------------------------------------|
----------------------------------------------------------|

     ~~              ~~                                        ~~
E|-----7-------------------11------12------------------------------|
B|--11---11--------------12---14-12---16-15------------------------|
G|----------13/11------13--------------------16-15-------16--------|
D|----------------13-14----------------------------16-14-----------|
A|-----------------------------------------------------------------|
E|-----------------------------------------------------------------|


E|----0h2h4h2h0---0h4h6h4h0---0h6h7h6h0---|
B|----------------------------------------|
G|----------------------------------------|
D|----------------------------------------|
A|----------------------------------------|
E|----------------------------------------|

0h7h9h7h0---0h9h11h9h0---0h11h11h11h0--|
---------------------------------------|
---------------------------------------|
---------------------------------------|
---------------------------------------|
---------------------------------------|

h - hammer on
B - pull off
/ - slide
~ - vibrato
^ - bend full
^h - bend half


Ivan from CEU Makati OPSD2a......
Tap to rate this tab
# A B C D E F G H I J K L M N O P Q R S T U V W X Y Z