Song name
# A B C D E F G H I J K L M N O P Q R S T U V W X Y Z

Steve Vai - Loose Keg Sightings tab

Tuning: full step down

Intro (0:00-0:08)
---------------------------------------------------|
---------------------------------------------------|
---------------------------------------------------|
--2----------2----------2----------2----------2----|
--2----------2----------2----------2----------2----|
--0---0--0-0-0---0--0-0-0---0--0-0-0---0--0-0-0----|
 (pm-----------------------------------------------|
Intro with variations (0:09-0:13)
--------------------------------------------------|
--------------------------------------------------|
--------------------------------------------------|
--4----------4----------4----------4----------4---|
--4----------4----------4----------4----------4---|
--2---2--2-2-2---2--2-2-2---2--2-2-2---2--2-2-2---|
 (pm----------------------------------------------|
3rd Riff (0:14-0:18)
-----------------------------------------------|
-----------------------------------------------|
--0----------0----------2----------------------|
--0----------0----------2----------------------|
--x----------x----------0--0-0-0-0-0-0-0-0-0---|
--3---3--3-3-3---3--3-3------------------------|
 (pm-------------------------------------------|
Outro (0:19-0:22)
------------------------------------7/-----|
------------------------------------7/-----|
--2--0------------------------------7/-----|
--2--0--4--2------------------------6/-----|
--0--x--4--2-------------------------------|
-----3--2--0-------------------------------|

Notation used:
/-slide
pm-palm mute
Tap to rate this tab
# A B C D E F G H I J K L M N O P Q R S T U V W X Y Z