Song name
# A B C D E F G H I J K L M N O P Q R S T U V W X Y Z

Steve Vai - Crying Machine Live tab

-------------------------------------------------------------------------------
			     The Crying Machine - Steve Vai
-------------------------------------------------------------------------------
Tabbed by: Jack
sorry if its a bit wrong im only 12 My first tab
Email:metal182@blueyonder.co.uk

Tuning:Concert pitch (normal)
if u wanna play it like Steve and me always use vibrato!

e|-----12---12---12---12---12---12---12---12---12---------------------------|
B|-----12---12---12---12---12---12---12---12---12---------------10b-----10b-|
G|-----14b--14b--14b--14b--14b--14b--14b--14b--14b--------------------------|
D|--------------------------------------------------------------------------|
A|--------------------------------------------------------------------------|
E|--------------------------------------------------------------------------|


e|--------------------------------------------------------------------------|
B|---10(bend before hitting the note then release)------8------10-----10b---|
G|--------------------------------------------------------------------------|
D|--------------------------------------------------------------------------|
A|--------------------------------------------------------------------------|
E|--------------------------------------------------------------------------|

e|--------------------------------------------------------------------------|
B|--10-------10----10----8---7----8----7-----------10b------10b----10--8----|
G|------------------------------------------9-------------------------------|
D|--------------------------------------------------------------------------|
A|--------------------------------------------------------------------------|
E|--------------------------------------------------------------------------|

e|--------------------------------------------------------------------------|
B|--10 ---12--13--12--10-----10--10--10---12----13--12(trill)-------12---16-|
G|--------------------------------------------------------------------------|
D|--------------------------------------------------------------------------|
A|--------------------------------------------------------------------------|
E|--------------------------------------------------------------------------|

e|--------------------------------------------------------------------------|
B|--10b--10b--10--8--10--10b--10------10--10--8--7--8--7---------7----------|
G|----------------------------------------------------------9--------7--9\4-|
D|--------------------------------------------------------------------------|
A|--------------------------------------------------------------------------|
E|--------------------------------------------------------------------------|

e|-----------------------------------------------------------------------------|
B|--10b-10b-10-8-10-12-12h13-12-10---10---10-10--12-13-12(trill)-16------------|
G|-----------------------------------------------------------------------------|
D|-----------------------------------------------------------------------------|
A|-----------------------------------------------------------------------------|
E|-----------------------------------------------------------------------------|

e|--------------------------------------------------------------------------|
B|--12p13-12-10h12p10----9-7/9/12---11-7-2/12------14bup then back down-12--|
G|--------------------------------------------------------------------------|
D|--------------------------------------------------------------------------|
A|--------------------------------------------------------------------------|
E|--------------------------------------------------------------------------|

e|--------------------------------------------------------17b-17b-17b-17-15-|
B|-14-12-11-12----------14---17-16\12\7/17--19b-17-19-----------------------|
G|-------------13-----------------------------------------------------------|
D|--------------------------------------------------------------------------|
A|--------------------------------------------------------------------------|
E|--------------------------------------------------------------------------|


e|17-17b--17-----17-17--15-14-15-14-------14------------------17b--17b-17-15-|
B|---------------------------------17---------15/17---12---------------------|
G|---------------------------------------------------------------------------|
D|---------------------------------------------------------------------------|
A|---------------------------------------------------------------------------|
E|---------------------------------------------------------------------------|
                                                          constant pick
e|-17-19-20-19-17---17---17-17--19-20-19(trill)---19---19/23--------------24-|
B|---------------------------------------------------------------------------|
G|---------------------------------------------------------------------------|
D|---------------------------------------------------------------------------|
A|---------------------------------------------------------------------------|
E|---------------------------------------------------------------------------|

e|----------------------------------------------------------------------------|
B|----------------------------------------------------------------------------|
G|------------------------0---------------------------------------------------|
D|--------2------------0----2-----------------2---------0---------------------|
A|--------2-----1--2--------------------------2---1--2------------------------|
E|-0-----------------------------------0--------------------3-----------------|

e|------------------------------------------------------------------------------|
B|------------------------------------------------------------------------------|
G|---------------0----------------------2-3-2-0-2------------------0------------|
D|-----2-------0----2-----------2------------------------2------0-----2---------|
A|-----2---1-2------------------2------------------------2--1-2-----------------|
E|-0------------------------0------0-----------------0--------------------------|

e|--------------------------------------------------------------------------|
B|--------------------------------------------------------------------------|
G|----------------------------------------0-------------------------7h9-----|
D|-----2----------------------2--------0-----2----0h2---5h7----7h9----------|
A|-----2-----------1----------2---1-2---------------------------------------|
E|--0---------3-2-----1----0------------------------------------------------|

e|--------------------------------------------------------------------------|
B|--------------------------------------------------------------------------|
G|-12p9--------/16/18/19(v)-------------------------------------------------|
D|--------------------------------------------------------------------------|
A|--------------------------------------------------------------------------|
E|--------------------------------------------------------------------------|

Thats all for now will tab rest later keep a look out for it. Please comment.
Jack

| /  slide up
| \  slide down
| h  hammer-on
| p  pull-off
| ~  vibrato
| +  harmonic
| x  Mute note
===============================================================================
Tap to rate this tab
# A B C D E F G H I J K L M N O P Q R S T U V W X Y Z