Song name
# A B C D E F G H I J K L M N O P Q R S T U V W X Y Z

Steve Vai - Too Many Notes tab

---------------------------------------------------------------------------
			     Too many notes - Steve vai
---------------------------------------------------------------------------
Tabbed by:Tom vine
Email:Elasticbandit@hotmail.co.uk

This is a brilliant song which is why im tabbing it!Ofcourse it will take me like a year 
get all of it down but have fun!

e|---------10-12-----------------------------------------------------|
B|-10-12-13-----13-10--10-13-15-12------12-13-10----10-12-9---9------|
G|--------------------------------13--13--------9--9-------9-9-------|
D|-------------------14-------------14-----------10---------9--------|
A|-------------------------------------------------------------------|
E|-------------------------------------------------------------------|

e|------------------------------------------------------------|
B|-10-------8-------10-------12--13-10------10-9-10-12-13-----|
G|---10------10-------10-------10-----11--11------------------|
D|-----10-10---10-10----10-10-----------12--------------------|
A|------------------------------------------------------------|
E|------------------------------------------------------------|

e|---------10-12--------------------------------------13-8------8----|
B|-10-12-13-----13-10--10-13-15-12------12-13-10----10----11--11-----|
G|--------------------------------13--13--------9--9--------11-------|
D|-------------------14-------------14-----------10------------------|
A|-------------------------------------------------------------------|
E|-------------------------------------------------------------------|

e|-12-------10-------12-------13-------15-------13-----------|
B|---13-------12-------13-------13-------13-------13---------|
G|-----12-12----12-12----12-12----14-14----14-14----14-14----|
D|-----------------------------------------------------------|
A|-----------------------------------------------------------|
E|-----------------------------------------------------------|

main theme

e|-12-8-----8-10-7---7-8-5---5-7-3---3--------|
B|-----10-10------8-8-----6-6-----5-5---------|
G|-------9---------7-------5-------4----------|
D|--------------------------------------------|
A|--------------------------------------------|
E|--------------------------------------------|

e|-------------------------------------------------------------------------|
B|-------------------------------------------------------------------------|
G|-------------------------------------------------------------------------|
D|-------------------------------------------------------------------------|
A|-------------------------------------------------------------------------|
E|-------------------------------------------------------------------------|

updadtes shall come with time my friends!:P
PLAESE RATE!


| /  slide up
| \  slide down
| h  hammer-on
| p  pull-off
| ~  vibrato
| +  harmonic
| x  Mute note
Tap to rate this tab
# A B C D E F G H I J K L M N O P Q R S T U V W X Y Z