Song name
# A B C D E F G H I J K L M N O P Q R S T U V W X Y Z

Steve Vai - Daves Party Piece tab

DAVE'S PARTY PIECE (Live)
                           As recorded by DAVE WEINER
   (From the 2004 Album "SHOVE THE SUN ASIDE" / also from - STEVE VAI: LIVE AT THE ASTORIA)

Music by DAVE WEINER
Transcribed by DAVE WEINER

NOTES:

This song is performed on a 7 string guitar.  I used the clean channel of my amp with a 
of gain from a Voodoo Lab Sparkle Drive.
Use a delay set to 320 BPM.  Add in a bit of chorus.  The notes should be played in a 
fashion using all downstrokes.
But.. that's just what I did.. do as you like.

What is tabbed out are the notes that you'll be playing, not the delay.  Have fun.

Dave
www.daveweiner.com

Gtr I (B E A D G B E)

  Q=133
 4/4
  H E E
|---0------|
|-----0----|
|----------|
|----------|
|----------|
|----------|
|-0--------|


 4/4
  Gtr I
   e  E  E  E  E  E  E  E  E  E  E  E  E  E  E E E E E E E E E E E E E E E E E E E E
|-24-23------------------------------------------------------------------------------|
|-------24-------------19-------16-------------------7-----4-------------------------|
|----------23-21-20-------20-------16-14-13----9-8-----8-----4-2---4---2-------------|
|-------------------21-------21-------------14-----9-----9-------4---4---4-2---4---2-|
|----------------------------------------------------------------------------4---4---|
|------------------------------------------------------------------------------------|
|------------------------------------------------------------------------------------|


  E E E E E E H W
|---------------0----|
|--------------------|
|--------------------|
|--------------------|
|-4-2----------------|
|-----4-2------------|
|---------4-2-0------|


  E E E E  8x E E E E E E E E E E  E E E E  E E E E E E E E E E E E  E E E E
|----------||----------------------------------------------------------------|
|-----7----||-----7-------7---9---10---9---10---7-------7-------9---10---9---|
|---8---8-o||---8---8---8---8---9----9---9----9---8---8---8---8---9----9---9-|
|-9--------||-9-------9-----------------------------9-------9----------------|
|---------o||----------------------------------------------------------------|
|----------||----------------------------------------------------------------|
|----------||----------------------------------------------------------------|


   E E E E E E E E E E  E E  E  E E E E E E E E E E E E E E E  E E E E  E E
|------7-------7-------11---12-11-9-7----------------------------------------|
|-10-----9---9---9---9----9-----------9---7-------7-------9---10---9---10----|
|----9-----9-------9--------------------9---8---8---8---8---9----9---9----9--|
|---------------------------------------------9-------9----------------------|
|----------------------------------------------------------------------------|
|----------------------------------------------------------------------------|
|----------------------------------------------------------------------------|


                                         <   <       <
   E E  E E  E E  E E E E E E E E  E E   E E E E  3x E E E
|-10-9---------9-10-9-7-------7--------|----------||-----------|
|------10---10----------9---9---9-10-9-|-7--------||-7---------|
|---------9---------------9------------|---8---8-o||---8-------|
|--------------------------------------|-----9----||-----9/----|
|--------------------------------------|---------o||-----------|
|--------------------------------------|----------||-----------|
|--------------------------------------|----------||-----------|


   E  E  E  E  E  E  E  E  E  E  E  E  E  E  E  E  E  E  E  E  E  E  E  E  E  E  E  E  E 
E  E  E
|----------------------------------------------------------------------------------------------------|
|-19----------19----------21----22----21----22----19----------19----------21----22----21----22-------|
|----20----20----20----20----21----21----21----21----20----20----20----20----21----21----21----21----|
|-------21----------21----------------------------------21----------21-------------------------------|
|----------------------------------------------------------------------------------------------------|
|----------------------------------------------------------------------------------------------------|
|----------------------------------------------------------------------------------------------------|


   E  E  E  E  E  E  E  E  E  E  E  E  E  E  E  E  E  E  E  E  E  E  E  E  E  E  E  E  E 
E  E  E
|-19----------19----------23----24-23-21-19----------------------------------------------------------|
|----21----21----21----21----21-------------21----19----------19----------21----22----21----22-------|
|-------21----------21-------------------------21----20----20----20----20----21----21----21----21----|
|-------------------------------------------------------21----------21-------------------------------|
|----------------------------------------------------------------------------------------------------|
|----------------------------------------------------------------------------------------------------|
|----------------------------------------------------------------------------------------------------|


   E  E  E  E  E  E  E  E  E  E  E  E  E  E  E  E
|-22-21----------21-22-21-19----------19----21----|
|-------22----22-------------21----21----21----21-|
|----------21-------------------21----------------|
|-------------------------------------------------|
|-------------------------------------------------|
|-------------------------------------------------|
|-------------------------------------------------|


   E  E  E  E  E  E  E  E  E  E  E  E  E  E  E E E E
|-24-23----------------------------------------------|
|-------24-------------19-------16-------------------|
|----------23-21-20-------20-------16-14-13----9-8---|
|-------------------21-------21-------------14-----9-|
|----------------------------------------------------|
|----------------------------------------------------|
|----------------------------------------------------|


  E E E E E E E E E E E E E E E E E E E E E E E E E E E E E E E E E E
|----------------------------------------------------------------------|
|-7-----4-----------4---5---4---5---4---5---4---5---4------------------|
|---8-----4-2---4-----4---4---4---4---4---4---4---4---4-2--------------|
|-----9-------4---4---------------------------------------4-2----------|
|-------------------------------------------------------------4-2------|
|-----------------------------------------------------------------4-2--|
|----------------------------------------------------------------------|


  E W E
|----------|
|-----4----|
|-----4----|
|-----4----|
Tap to rate this tab
# A B C D E F G H I J K L M N O P Q R S T U V W X Y Z