Song name
# A B C D E F G H I J K L M N O P Q R S T U V W X Y Z

Steve Vai - Gentle Ways tab

             gentle  ways                                   

As tabbed by Ollie B.  From the album Sound Theories
                                                                       Steve Vai
acoustic


     S S S S S S S S S S S S S S E     S S S S S S S S S S S S S S E   
E||---------------------------------|---------------------------------|
B||------7---7---7-------7---7---7--|------7---7---7-------7---7---7--|
G||----4---4---4---4---4---4---4----|----4---4---4---4---4---4---4----|
D||--5---------------5--------------|--5---------------5--------------|
A||---------------------------------|---------------------------------|
E||---------------------------------|---------------------------------|


  S S S S S S S S S S S S S S E     S S S S S S S S S S S S S S E   
---------------------------------|---------------------------------|
------7---7---7-------7---7---7--|------7---7---7-------7---7---7--|
----4---4---4---4---4---4---4----|----4---4---4---4---4---4---4----|
--5---------------5--------------|--5---------------5--------------|
---------------------------------|---------------------------------|
---------------------------------|---------------------------------|


  S S S S S S S S S S S S S S E     S S S S S S S S S S S S S S E   
---------------------------------|---------------------------------|
------7---7---7-------7---7---7--|------7---7---7-------7---7---7--|
----4---4---4---4---4---4---4----|----4---4---4---4---4---4---4----|
--5---------------5--------------|--5---------------5--------------|
---------------------------------|---------------------------------|
---------------------------------|---------------------------------|


  S S S S S S S S S S S S S S E     S S S S S S S S S S S S Q     
---------------------------------|--------------------------0----|
------7---7---7-------7---7---7--|------7---7---7-------7--------|
----4---4---4---4---4---4---4----|----4---4---4---4---4---4------|
--5---------------5--------------|--5---------------5------------|
---------------------------------|-------------------------------|
---------------------------------|-------------------------------|


  ^         ^           ^         ^           ^         ^              
  H         H           H         H           H         E  S S S S E   
---------------------|---------------------|-------------------0------|
--7s--------3--------|--7s--------3--------|--6------------3-----3----|
--4---------4--------|--4---------4--------|--5---------6----6-----6--|
--5---------5--------|--5---------5--------|--6---------7-------------|
--7---------7--------|--3---------3--------|--8s--------0-------------|
--0---------0--------|--0---------0--------|--------------------------|


  ^                              ^         ^           ^         ^         
  E.  S S S S S S S S S E  E     H         H           H         H         
------0-----0-----------------|---------------------|---------------------|
--3-----3-----3-----3---------|--7s--------3--------|--7s--------3--------|
--2-------2-------2-----------|--4---------4--------|--4---------4--------|
--0---------------------------|--5---------5--------|--5---------5--------|
----------------4-----4-2--0--|--7---------7--------|--3---------3--------|
------------------------------|--0---------0--------|--0---------0--------|


  ^         ^                ^                              
  H         E  S S S S E     E.  S S S S S S S S S S S S S  
-------------------0------|------0-----0---------0-----0---|
--6------------3-----3----|--3-----3-----3-----3---3-----3-|
--5---------6----6-----6--|--2-------2-------2-------2-----|
--6---------7-------------|--0-----------------------------|
--8s--------0-------------|----------------4---------------|
--------------------------|--------------------------------|


  S S S S S S S S S S S S S S S S    S S S S S S S S S S S S S S S S  
--------0-----0---------0-------0-|--------0-----0---------0-----0---|
------3---3-----3-----3-------3---|------3---3-----3-----3---3-----3-|
----2-------2-------2-------2-----|----2-------2-------2-------2-----|
----------------------------------|--0-------------------------------|
--3---------------2-------0-------|------------------4---------------|
----------------------------------|----------------------------------|


                                             |--3--|                 
  S S S S S S S S S S S S S S S S    S S S S E  E  E  E  S S S S E   
--------0-----0---------0-------0-|--------------------------0------|
------3---3-----3-----3-------3---|------3---------------0-----0----|
----2-------2-------2-------2-----|--------0-0--2--4--3----3-----3--|
----------------------------------|----0-----0--------4-------------|
--3---------------2-------0-------|-------------------4-------------|
----------------------------------|--3-------3--------2-------------|


  ^                                                                    
       |--3--|          |--3--|                |--3--|       |--3--|   
  Q    E  E  E  E.  S S T  T  T S S    S S S S E  E  E  Q    E  E  E   
------------------------------------|---------------------------------|
--0----0--2--3--2---2-2-2h-3p-2-0---|------3-----------------0--2--3--|
--0----0--------2-----2-----------2-|--------0-0--2--4--3-------------|
--0----0--------2-----2-------------|----0-----0--------4-------------|
----------------0-------------------|-------------------4-------------|
--3----3----------------------------|--3-------3--------2-------------|


                        ^        ^           ^        ^         
  H        Q    Q       H        H           H        H         
-----------0----2----|--------------------|--------------------|
--4------------------|--7--------3--------|--7--------3--------|
--4------------------|--4--------4--------|--4--------4--------|
--4------------------|--5--------5--------|--5--------5--------|
--2------------------|--7--------7--------|--3--------3--------|
---------------------|--0--------0--------|--0--------0--------|


  ^         ^                ^                 
  H         E  S S S S E     W                 
-------------------0------|-------------------|
--6------------3-----3----|--3----------------|
--5---------6----6-----6--|--2----------------|
--6---------7-------------|--0----------------|
--8s--------0-------------|-------------------|
--------------------------|-------------------|


                    |-3-| |--3-|      |---3---|   |--3--|            
  S   S E  H        E   S S  S S      E   E   E   E  E  E  H         
----------------------------------|---------------------------------|
----------------------------------|---------------------------------|
--9S-11------------------------9h-|--11--11--12--11--7--7--L--------|
--------9--L--------L-----9-12----|---------------------------------|
-----------------------12---------|---------------------------------|
----------------------------------|---------------------------------|


  |--6-| |-6-|                                                    
  S S  S S S S E.  S S S E  E.  S    T  T  T  T  E  H.            
----------------------------------|------------------------------|
---------L------------------------|------------------------------|
--L-L-10-L-9-7-------6------------|------------------------------|
---------------8---8---7-7--L---5-|--7h-8p-7p-5S-7--L------------|
----------------------------------|------------------------------|
----------------------------------|------------------------------|


  |--3-|              |--3--|     |--3--|                
  S S  S  S  T  T  E  S  S  S     S  S  S E  E.   T   T  
------17--L-15-14-12----10-12-12g13-12-10-L--L---12p-10-|
--------------------------------------------------------|
--------------------------------------------------------|
--------------------------------------------------------|
--------------------------------------------------------|
--------------------------------------------------------|


                                ok       
   |---3---|           |---3--|          
   E   E   E   Q    S  S   S  S S  Q     
--17--15--14--10------12br-L-10-L--L----|
----------------------------------------|
----------------------------------------|
----------------------------------------|
----------------------------------------|
----------------------------------------|


     |--3--|                     |-3-|  
  E  S   S S S S S  S    Q    E  S S S  
-----8pb-L-6-5---8p-5------------------|
---------------6------8g10----L--L-8-7-|
---------------------------------------|
---------------------------------------|
---------------------------------------|
---------------------------------------|


  |-3-| 3                                           
  S S S S S.  T  T  T  T  T. S   T  T E  E   T   S  
-------------------------10-10b-10-10-L--L--12p-10-|
--8-7-8-7-L--------10-12---------------------------|
-------------11-12---------------------------------|
---------------------------------------------------|
---------------------------------------------------|
---------------------------------------------------|


   |---3---|           |--3--|                  
   E   E   E   Q     S T  T  T   S  S  S  S E   
--17--15--14--10----12----------------10-------|
--------------------12-L-13-12S-10-------10-L--|
-----------------------------------12----------|
-----------------------------------------------|
-----------------------------------------------|
-----------------------------------------------|


   ^                    ^                     
      |--3-|            |--3-|  |---3---|     
   S  S S  S S Q    E   S  S S  S   S   S E   
---------------------------------------------|
--10S-7-7S-5-5-L----L--10S-7---10S-14S-10-L--|
--11-------------------11--------------------|
--12-------------------12--------------------|
---------------------------------------------|
---------------------------------------------|


                                               ok    
      ^                                              
      |--3--|     |----3---|    |-----3----|         
  E   S  S  S  S  T  T  S  S  S E  E   S   S   Q     
----------------------------------------------------|
--L--10-12-13-12-13-12-10-------------10S-12S-10----|
-----11-------------------12-11-9--7----------------|
---------------------------------------7S--9S--7----|
----------------------------------------------------|
----------------------------------------------------|


      |--3--|  |--3--|  |--3--|  |---3--|  |-3-|  |--3--|  
  E   S  S  S  S  S  S  S  S  S  E   E  E  E   S  S  S  S  
--------------12----------12------------------------------|
-----12-14-15----15-14-------14------------------------12-|
-----------------------16-------15------------11-12-14----|
------------------------------------16--L--L--------------|
----------------------------------------------------------|
----------------------------------------------------------|


   |--3--|  |3|  |-3-|  |--3--|            |--3--|     
   S  S  S  S E  E   S  S  S  S  S S  S  S S  S  S E   
-----10----------------------------9-------9----------|
--14----14----------------------12---12------12----L--|
-----------14-L--L--------11-14---------14------14-L--|
--------------------12-14-----------------------------|
------------------------------------------------------|
------------------------------------------------------|


  unok?                                                        
         |---3--|  |---3---|      |---3--|      |--3--|        
  E      S   S  S  S   S   S  E   S   S  S  E   S  S  S  S  S  
--------19p-17---------------------------------------14-------|
--L------------19-20p-19p-17-----20p-17-----------17----17----|
--L--------------------------19---------19-18--19----------18-|
--------------------------------------------------------------|
--------------------------------------------------------------|
--------------------------------------------------------------|


               v        ^  v v                                        
   |---3---|                                                          
   E   E   E   Q    E   S  S Q       S   S E  E.  S S S S   S  E.  S  
--------------14----L--14-14-L----|----------------------------------|
--16----------16----L--16-16-L----|---------------------5S-10--------|
------18------18----L--18-18-L----|--9S-11------------7-------11---9-|
----------21--21----L--21-21-L----|--------9--L-----4----------------|
----------------------------------|---------------7------------------|
----------------------------------|----------------------------------|


                             |---3---|                     
  S   S E  S  T  T   T  T    E  E  S S Q    S  S E  E  E   
--------------------------|-------------------------------|
--------------------------|-----6--5-3--------------------|
--9S-11-7--L-11s-9s-11s-9-|--L---------5----5S-6----------|
--------------------------|----------------------7--L--5--|
--------------------------|-------------------------------|
--------------------------|-------------------------------|


                          ^        ^           ^        ^         
    E  E  H.              H        H           H        H         
-----------------------|--------------------|--------------------|
-----------------------|--7--------3--------|--7--------3--------|
--7g9--7--L------------|--4--------4--------|--4--------4--------|
-----------------------|--5--------5--------|--5--------5--------|
-----------------------|--7--------7--------|--3--------3--------|
-----------------------|--0--------0--------|--0--------0--------|


  ^         ^                ^                              ^         ^         
  H         E  S S S S E     E.  S S S S S S S S S E  E     H         H         
-------------------0------|------0-----0-----------------|---------------------|
--6------------3-----3----|--3-----3-----3-----3---------|--7s--------3--------|
--5---------6----6-----6--|--2-------2-------2-----------|--4---------4--------|
--6---------7-------------|--0---------------------------|--5---------5--------|
--8s--------0-------------|----------------4-----4-2--0--|--7---------7--------|
--------------------------|------------------------------|--0---------0--------|


  ^         ^           ^         ^              
  H         H           H         E  S S S S E   
---------------------|-------------------0------|
--7s--------3--------|--6------------3-----3----|
--4---------4--------|--5---------6----6-----6--|
--5---------5--------|--6---------7-------------|
--3---------3--------|--8s--------0-------------|
--0---------0--------|--------------------------|


  ^                                                                 
  E.  S S S S S S S S S S S S S    S S S S S S S S S S S S S S S S  
------0-----0---------0-----0---|--------0-----0---------0-------0-|
--3-----3-----3-----3---3-----3-|------3---3-----3-----3-------3---|
--2-------2-------2-------2-----|----2-------2-------2-------2-----|
--0-----------------------------|----------------------------------|
----------------4---------------|--3---------------2-------0-------|
--------------------------------|----------------------------------|


  S S S S S S S S S S S S S S S S    S S S S S S S S S S S S S S S S  
--------0-----0---------0-----0---|--------0-----0---------0-------0-|
------3---3-----3-----3---3-----3-|------3---3-----3-----3-------3---|
----2-------2-------2-------2-----|----2-------2-------2-------2-----|
--0-------------------------------|----------------------------------|
------------------4---------------|--3---------------2-------0-------|
----------------------------------|----------------------------------|


                                    ^                                
          |--3--|                        |--3--|                     
  S S S S E  E  E  E  S S S S E     Q    E  E  E  E.  S S T  T  S S  
--------------------------0------|----------------------------------|
------3---------------0-----0----|--0----0--2--3--2---2-2-3p-2p-0-0-|
--------0-0--2--4--3----3-----3--|--0----0--------2-----2-----------|
----0-----0--------4-------------|--0----0--------2-----2-----------|
-------------------4-------------|----------------0-----------------|
--3-------3--------2-------------|--3----3--------------------------|


                                                          ^        ^         
          |--3--|       |--3--|                                              
  S S S S E  E  E  Q    E  E  E     H        Q    Q       H        H         
---------------------------------|-----------0----2----|--------------------|
------3-----------------0--2--3--|--4------------------|--7--------3--------|
--------0-0--2--4--3-------------|--4------------------|--4--------4--------|
----0-----0--------4-------------|--4------------------|--5--------5--------|
-------------------4-------------|--2------------------|--7--------7--------|
--3-------3--------2-------------|---------------------|--0--------0--------|


  ^        ^           ^         ^                                             
  H        H           H         H           W                                 
--------------------|---------------------|-------------------|-------|-------|
--7--------3--------|--6------------------|--3----------------|-------|-------|
--4--------4--------|--5---------6--------|--2----------------|-------|-------|
--5--------5--------|--6---------7--------|--0----------------|-------|-------|
--3--------3--------|--8s--------0--------|-------------------|-------|-------|
--0--------0--------|---------------------|-------------------|-------|-------|


-------|-------|-------|-------|-------|-------|-------||
-------|-------|-------|-------|-------|-------|-------||
-------|-------|-------|-------|-------|-------|-------||
-------|-------|-------|-------|-------|-------|-------||
-------|-------|-------|-------|-------|-------|-------||
-------|-------|-------|-------|-------|-------|-------||


Piano



     Q    Q    E  E  E  T  T  T  T     T  T  T  T  T  
E||-----------------------26-24-22-|--22-21-19-19-17-|
B||--------------------------------|-----------------|
G||--------------------------------|-----------------|
D||--------------------------------|-----------------|
A||--------------------------------|-----------------|
E||--------------------------------|-----------------|


  Q.      T  T  T  T  T  T  T            S S S S S S S S S S S S S S E   
---------19-21-22-22-21-19-21-|-------|---------------------------------|
------------------------------|-------|------7---7---7-------7---7---7--|
------------------------------|-------|---------------------------------|
------------------------------|-------|---------------------------------|
------------------------------|-------|---------------------------------|
------------------------------|-------|---------------------------------|


  S S S S S S S S S S S S S S E     S S S S S S S S S S S S S S E   
---------------------------------|---------------------------------|
------7---7---7-------7---7---7--|------7---7---7-------7---7---7--|
---------------------------------|---------------------------------|
---------------------------------|---------------------------------|
---------------------------------|---------------------------------|
---------------------------------|---------------------------------|


  S S S S S S S S S S S S S S E                                           
---------------------------------|-------|-------|-------|-------|-------|
------7---7---7-------7---7---7--|-------|-------|-------|-------|-------|
---------------------------------|-------|-------|-------|-------|-------|
---------------------------------|-------|-------|-------|-------|-------|
---------------------------------|-------|-------|-------|-------|-------|
---------------------------------|-------|-------|-------|-------|-------|


-------|-------|-------|-------|-------|-------|-------|-------|-------|-------|
-------|-------|-------|-------|-------|-------|-------|-------|-------|-------|
-------|-------|-------|-------|-------|-------|-------|-------|-------|-------|
-------|-------|-------|-------|-------|-------|-------|-------|-------|-------|
-------|-------|-------|-------|-------|-------|-------|-------|-------|-------|
-------|-------|-------|-------|-------|-------|-------|-------|-------|-------|


-------|-------|-------|-------|-------|-------|-------|-------|-------|-------|
-------|-------|-------|-------|-------|-------|-------|-------|-------|-------|
-------|-------|-------|-------|-------|-------|-------|-------|-------|-------|
-------|-------|-------|-------|-------|-------|-------|-------|-------|-------|
-------|-------|-------|-------|-------|-------|-------|-------|-------|-------|
-------|-------|-------|-------|-------|-------|-------|-------|-------|-------|


-------|-------|-------|-------|-------|-------|-------|-------|-------|-------|
-------|-------|-------|-------|-------|-------|-------|-------|-------|-------|
-------|-------|-------|-------|-------|-------|-------|-------|-------|-------|
-------|-------|-------|-------|-------|-------|-------|-------|-------|-------|
-------|-------|-------|-------|-------|-------|-------|-------|-------|-------|
-------|-------|-------|-------|-------|-------|-------|-------|-------|-------|


-------|-------|-------|-------|-------|-------|-------|-------|-------|-------|
-------|-------|-------|-------|-------|-------|-------|-------|-------|-------|
-------|-------|-------|-------|-------|-------|-------|-------|-------|-------|
-------|-------|-------|-------|-------|-------|-------|-------|-------|-------|
-------|-------|-------|-------|-------|-------|-------|-------|-------|-------|
-------|-------|-------|-------|-------|-------|-------|-------|-------|-------|


-------|-------|-------|-------|-------|-------|-------|-------|-------|-------|
-------|-------|-------|-------|-------|-------|-------|-------|-------|-------|
-------|-------|-------|-------|-------|-------|-------|-------|-------|-------|
-------|-------|-------|-------|-------|-------|-------|-------|-------|-------|
-------|-------|-------|-------|-------|-------|-------|-------|-------|-------|
-------|-------|-------|-------|-------|-------|-------|-------|-------|-------|


-------|-------|-------|-------|-------|-------|-------|-------|-------|-------|
-------|-------|-------|-------|-------|-------|-------|-------|-------|-------|
-------|-------|-------|-------|-------|-------|-------|-------|-------|-------|
-------|-------|-------|-------|-------|-------|-------|-------|-------|-------|
-------|-------|-------|-------|-------|-------|-------|-------|-------|-------|
-------|-------|-------|-------|-------|-------|-------|-------|-------|-------|


-------||
-------||
-------||
-------||
-------||
-------||

Distortion



E||-------|-------|-------|-------|-------|-------|-------|-------|-------|
B||-------|-------|-------|-------|-------|-------|-------|-------|-------|
G||-------|-------|-------|-------|-------|-------|-------|-------|-------|
D||-------|-------|-------|-------|-------|-------|-------|-------|-------|
A||-------|-------|-------|-------|-------|-------|-------|-------|-------|
E||-------|-------|-------|-------|-------|-------|-------|-------|-------|


-------|-------|-------|-------|-------|-------|-------|-------|-------|-------|
-------|-------|-------|-------|-------|-------|-------|-------|-------|-------|
-------|-------|-------|-------|-------|-------|-------|-------|-------|-------|
-------|-------|-------|-------|-------|-------|-------|-------|-------|-------|
-------|-------|-------|-------|-------|-------|-------|-------|-------|-------|
-------|-------|-------|-------|-------|-------|-------|-------|-------|-------|


-------|-------|-------|-------|-------|-------|-------|-------|-------|-------|
-------|-------|-------|-------|-------|-------|-------|-------|-------|-------|
-------|-------|-------|-------|-------|-------|-------|-------|-------|-------|
-------|-------|-------|-------|-------|-------|-------|-------|-------|-------|
-------|-------|-------|-------|-------|-------|-------|-------|-------|-------|
-------|-------|-------|-------|-------|-------|-------|-------|-------|-------|


-------|-------|-------|-------|-------|-------|-------|-------|-------|-------|
-------|-------|-------|-------|-------|-------|-------|-------|-------|-------|
-------|-------|-------|-------|-------|-------|-------|-------|-------|-------|
-------|-------|-------|-------|-------|-------|-------|-------|-------|-------|
-------|-------|-------|-------|-------|-------|-------|-------|-------|-------|
-------|-------|-------|-------|-------|-------|-------|-------|-------|-------|


-------|-------|-------|-------|-------|-------|-------|
-------|-------|-------|-------|-------|-------|-------|
-------|-------|-------|-------|-------|-------|-------|
-------|-------|-------|-------|-------|-------|-------|
-------|-------|-------|-------|-------|-------|-------|
-------|-------|-------|-------|-------|-------|-------|


      H          H               H          H            H         H         
--12g14s--------10--------|--12g14s--------10--------|--13s--------9--------|
--------------------------|--------------------------|----------------------|
--------------------------|--------------------------|----------------------|
--------------------------|--------------------------|----------------------|
--------------------------|--------------------------|----------------------|
--------------------------|--------------------------|----------------------|


   W                       H          H               H          H         
--10----------------|--12g14s--------10--------|--12g14s--------10--------|
--------------------|--------------------------|--------------------------|
--------------------|--------------------------|--------------------------|
--------------------|--------------------------|--------------------------|
--------------------|--------------------------|--------------------------|
--------------------|--------------------------|--------------------------|


   H         H            W                   W                 
--13s--------9--------|--10----------------|--L----------------|
----------------------|--------------------|-------------------|
----------------------|--------------------|-------------------|
----------------------|--------------------|-------------------|
----------------------|--------------------|-------------------|
----------------------|--------------------|-------------------|


     PH                                                                      
                                                     |--3--|                 
     W                   W                   S S S S E  E  E  E  S S S S E   
---<>L----------------|--L----------------|---------------------------------|
----------------------|-------------------|---------------------------------|
----------------------|-------------------|----------0--2--4--3----------3--|
----------------------|-------------------|---------------------------------|
----------------------|-------------------|---------------------------------|
----------------------|-------------------|---------------------------------|


       |--3--|                               |--3--|       |--3--|   
  Q    E  E  E  E.  S S T  T  S S    S S S S E  E  E  Q    E  E  E   
----------------------------------|---------------------------------|
-------0--2--3--2---2-2-3p-2p-0---|------------------------0--2--3--|
--------------------------------2-|----------0--2--4--3-------------|
----------------------------------|---------------------------------|
----------------------------------|---------------------------------|
----------------------------------|---------------------------------|


  H        Q    Q           H          H               H          H         
-----------0----2----|--12g14s--------10--------|--12g14s--------10--------|
--4------------------|--------------------------|--------------------------|
---------------------|--------------------------|--------------------------|
---------------------|--------------------------|--------------------------|
---------------------|--------------------------|--------------------------|
---------------------|--------------------------|--------------------------|


   H         H            W                                                 
--13s--------9--------|--10----------------|-------|-------|-------|-------|
----------------------|--------------------|-------|-------|-------|-------|
----------------------|--------------------|-------|-------|-------|-------|
----------------------|--------------------|-------|-------|-------|-------|
----------------------|--------------------|-------|-------|-------|-------|
----------------------|--------------------|-------|-------|-------|-------|


-------|-------|-------|-------|-------||
-------|-------|-------|-------|-------||
-------|-------|-------|-------|-------||
-------|-------|-------|-------|-------||
-------|-------|-------|-------|-------||
-------|-------|-------|-------|-------||

Violin



E||-------|-------|-------|-------|-------|-------|-------|-------|
B||-------|-------|-------|-------|-------|-------|-------|-------|
G||-------|-------|-------|-------|-------|-------|-------|-------|
D||-------|-------|-------|-------|-------|-------|-------|-------|
A||-------|-------|-------|-------|-------|-------|-------|-------|
E||-------|-------|-------|-------|-------|-------|-------|-------|


  ^         ^           ^         ^           ^        ^         
  H         H           H         H           H        H         
---------------------|---------------------|--------------------|
--7s--------3--------|--7s--------3--------|--6-----------------|
--4---------4--------|--4---------4--------|--5--------6--------|
---------------------|---------------------|-----------7--------|
---------------------|---------------------|--------------------|
---------------------|---------------------|--------------------|


  ^                   ^         ^           ^         ^         
  W                   H         H           H         H         
-------------------|---------------------|---------------------|
--3----------------|--7s--------3--------|--7s--------3--------|
--2----------------|--4---------4--------|--4---------4--------|
-------------------|---------------------|---------------------|
-------------------|---------------------|---------------------|
-------------------|---------------------|---------------------|


  ^        ^                                                    
  H        H                           Q    S S S S Q.     S S  
--------------------|-------|-------|--------------------------|
--6-----------------|-------|-------|--------------------------|
--5--------6--------|-------|-------|---------------2------4-2-|
-----------7--------|-------|-------|-------0-2-4-5------------|
--------------------|-------|-------|--------------------------|
--------------------|-------|-------|--------------------------|


  E.  S Q    E  E  S S S S    H        Q    E  E     H        Q    E  E   
---------------------------|----------------------|----------------------|
---------------------------|----------------------|----------------------|
--5---4-2----4--2----------|----------------------|----------------------|
-------------------3-2-0-2-|--0-------------0--2--|--5--------2----5--2--|
---------------------------|-----------4----------|----------------------|
---------------------------|----------------------|----------------------|


  H        Q    E  E     H        Q    Q                                     
----------------------|---------------------|-------|-------|-------|-------|
----------------------|---------------------|-------|-------|-------|-------|
----------------------|---------------------|-------|-------|-------|-------|
--0-------------0--2--|--4--------2----4----|-------|-------|-------|-------|
-----------4----------|---------------------|-------|-------|-------|-------|
----------------------|---------------------|-------|-------|-------|-------|


  W                   W                   W                   W                 
-------------------|-------------------|-------------------|-------------------|
-------------------|-------------------|-------------------|-------------------|
-------------------|-------------------|-------------------|-------------------|
-------------------|-------------------|-------------------|-------------------|
-------------------|-------------------|-------------------|-------------------|
-------------------|-------------------|-------------------|-------------------|


                                 |-3-|                 |-3-|    |-3-|           
  W                           E  S S S S S S S Q    E  S S S    S S S E         
-------------------|-------|---------------------------------|-----------|-----|
-------------------|-------|---------------------------L-8-7-|--8-7-8-7--|-----|
-------------------|-------|---------------------------------|-----------|-----|
-------------------|-------|---------------------------------|-----------|-----|
-------------------|-------|---------------------------------|-----------|-----|
-------------------|-------|---------------------------------|-----------|-----|


                     ^                                         
    |-3-|            |--3-|  3   3   3                         
  S S S S S Q    E   S  S S  S   S   W                   Q     
------------------------------------------------------|-------|
-----------------L--10S-7-L-10S-14S-10----------------|--L----|
--------------------11--------------------------------|-------|
--------------------12--------------------------------|-------|
------------------------------------------------------|-------|
------------------------------------------------------|-------|


  H        Q    E  E     H        Q    E  E     H        Q    E  E   
----------------------|----------------------|----------------------|
----------------------|----------------------|----------------------|
----------------------|----------------------|----------------------|
--0-------------0--2--|--5--------2----5--2--|--0-------------0--2--|
-----------4----------|----------------------|-----------4----------|
----------------------|----------------------|----------------------|


  H        Q    Q               S S E  S  T  T   T  T            E  H         
---------------------|-------|------------------------|-------|--------------|
---------------------|-------|------------------------|-------|--------------|
---------------------|-------|-----------11s-9s-11s-9-|-------|--9--7--------|
--4--------2----4----|-------|------------------------|-------|--------------|
---------------------|-------|------------------------|-------|--------------|
---------------------|-------|------------------------|-------|--------------|


  ^         ^           ^         ^           ^        ^         
  H         H           H         H           H        H         
---------------------|---------------------|--------------------|
--7s--------3--------|--7s--------3--------|--6-----------------|
--4---------4--------|--4---------4--------|--5--------6--------|
---------------------|---------------------|-----------7--------|
---------------------|---------------------|--------------------|
---------------------|---------------------|--------------------|


  ^                   ^         ^           ^         ^         
  W                   H         H           H         H         
-------------------|---------------------|---------------------|
--3----------------|--7s--------3--------|--7s--------3--------|
--2----------------|--4---------4--------|--4---------4--------|
-------------------|---------------------|---------------------|
-------------------|---------------------|---------------------|
-------------------|---------------------|---------------------|


  ^        ^                                                    
  H        H                           Q    S S S S Q.     S S  
--------------------|-------|-------|--------------------------|
--6-----------------|-------|-------|--------------------------|
--5--------6--------|-------|-------|---------------2------4-2-|
-----------7--------|-------|-------|-------0-2-4-5------------|
--------------------|-------|-------|--------------------------|
--------------------|-------|-------|--------------------------|


  E.  S Q    E  E  S S S S    H        Q    E  E     H        Q    E  E   
---------------------------|----------------------|----------------------|
---------------------------|----------------------|----------------------|
--5---4-2----4--2----------|----------------------|----------------------|
-------------------3-2-0-2-|--0-------------0--2--|--5--------2----5--2--|
---------------------------|-----------4----------|----------------------|
---------------------------|----------------------|----------------------|


                                               ^         ^         
  H        Q    E  E     H        Q    Q       H         H         
----------------------|---------------------|---------------------|
----------------------|---------------------|--7s--------3--------|
----------------------|---------------------|--4---------4--------|
--0-------------0--2--|--4--------2----4----|---------------------|
-----------4----------|---------------------|---------------------|
----------------------|---------------------|---------------------|


  ^         ^           ^        ^           ^                                 
  H         H           H        H           W                                 
---------------------|--------------------|-------------------|-------|-------|
--7s--------3--------|--6-----------------|--3----------------|-------|-------|
--4---------4--------|--5--------6--------|--2----------------|-------|-------|
---------------------|-----------7--------|-------------------|-------|-------|
---------------------|--------------------|-------------------|-------|-------|
---------------------|--------------------|-------------------|-------|-------|


-------|-------|-------|-------|-------|-------|-------||
-------|-------|-------|-------|-------|-------|-------||
-------|-------|-------|-------|-------|-------|-------||
-------|-------|-------|-------|-------|-------|-------||
-------|-------|-------|-------|-------|-------|-------||
-------|-------|-------|-------|-------|-------|-------||

Bass



E||-------|-------|-------|-------|-------|-------|-------|-------|-------|
B||-------|-------|-------|-------|-------|-------|-------|-------|-------|
G||-------|-------|-------|-------|-------|-------|-------|-------|-------|
D||-------|-------|-------|-------|-------|-------|-------|-------|-------|
A||-------|-------|-------|-------|-------|-------|-------|-------|-------|
E||-------|-------|-------|-------|-------|-------|-------|-------|-------|


-------|-------|-------|-------|-------|-------|-------|-------|-------|-------|
-------|-------|-------|-------|-------|-------|-------|-------|-------|-------|
-------|-------|-------|-------|-------|-------|-------|-------|-------|-------|
-------|-------|-------|-------|-------|-------|-------|-------|-------|-------|
-------|-------|-------|-------|-------|-------|-------|-------|-------|-------|
-------|-------|-------|-------|-------|-------|-------|-------|-------|-------|


-------|-------|-------|-------|-------|-------|-------|-------|-------|-------|
-------|-------|-------|-------|-------|-------|-------|-------|-------|-------|
-------|-------|-------|-------|-------|-------|-------|-------|-------|-------|
-------|-------|-------|-------|-------|-------|-------|-------|-------|-------|
-------|-------|-------|-------|-------|-------|-------|-------|-------|-------|
-------|-------|-------|-------|-------|-------|-------|-------|-------|-------|


                                     |--3--|                     |-3-|  
                                  E  S   S S S S S  S    Q    E  S S S  
-------|-------|-------|-------|-----8pb-L-6-5---8p-5------------------|
-------|-------|-------|-------|---------------6------8g10----L--L-8-7-|
-------|-------|-------|-------|---------------------------------------|
-------|-------|-------|-------|---------------------------------------|
-------|-------|-------|-------|---------------------------------------|
-------|-------|-------|-------|---------------------------------------|


  |-3-| 3                                                                  
  S S S S S.  T  T  T  T T. S T T E  E  T                                  
------------------------------------------|-------|-------|-------|-------|
--8-7-8-7-L---L--L--L--L-L--L-L-L---------|-------|-------|-------|-------|
--------------L--L------------------------|-------|-------|-------|-------|
------------------------------------------|-------|-------|-------|-------|
------------------------------------------|-------|-------|-------|-------|
------------------------------------------|-------|-------|-------|-------|


-------|-------|-------|-------|-------|-------|-------|-------|-------|-------|
-------|-------|-------|-------|-------|-------|-------|-------|-------|-------|
-------|-------|-------|-------|-------|-------|-------|-------|-------|-------|
-------|-------|-------|-------|-------|-------|-------|-------|-------|-------|
-------|-------|-------|-------|-------|-------|-------|-------|-------|-------|
-------|-------|-------|-------|-------|-------|-------|-------|-------|-------|


-------|-------|-------|-------|-------|-------|-------|-------|-------|-------|
-------|-------|-------|-------|-------|-------|-------|-------|-------|-------|
-------|-------|-------|-------|-------|-------|-------|-------|-------|-------|
-------|-------|-------|-------|-------|-------|-------|-------|-------|-------|
-------|-------|-------|-------|-------|-------|-------|-------|-------|-------|
-------|-------|-------|-------|-------|-------|-------|-------|-------|-------|


-------|-------|-------|-------|-------|-------|-------|-------|-------|-------|
-------|-------|-------|-------|-------|-------|-------|-------|-------|-------|
-------|-------|-------|-------|-------|-------|-------|-------|-------|-------|
-------|-------|-------|-------|-------|-------|-------|-------|-------|-------|
-------|-------|-------|-------|-------|-------|-------|-------|-------|-------|
-------|-------|-------|-------|-------|-------|-------|-------|-------|-------|


-------|-------|-------|-------|-------||
-------|-------|-------|-------|-------||
-------|-------|-------|-------|-------||
-------|-------|-------|-------|-------||
-------|-------|-------|-------|-------||
-------|-------|-------|-------|-------||

Xylo



E||-------|-------|-------|-------|-------|-------|-------|-------|-------|
B||-------|-------|-------|-------|-------|-------|-------|-------|-------|
G||-------|-------|-------|-------|-------|-------|-------|-------|-------|
D||-------|-------|-------|-------|-------|-------|-------|-------|-------|
A||-------|-------|-------|-------|-------|-------|-------|-------|-------|
E||-------|-------|-------|-------|-------|-------|-------|-------|-------|


-------|-------|-------|-------|-------|-------|-------|-------|-------|-------|
-------|-------|-------|-------|-------|-------|-------|-------|-------|-------|
-------|-------|-------|-------|-------|-------|-------|-------|-------|-------|
-------|-------|-------|-------|-------|-------|-------|-------|-------|-------|
-------|-------|-------|-------|-------|-------|-------|-------|-------|-------|
-------|-------|-------|-------|-------|-------|-------|-------|-------|-------|


-------|-------|-------|-------|-------|-------|-------|-------|-------|
-------|-------|-------|-------|-------|-------|-------|-------|-------|
-------|-------|-------|-------|-------|-------|-------|-------|-------|
-------|-------|-------|-------|-------|-------|-------|-------|-------|
-------|-------|-------|-------|-------|-------|-------|-------|-------|
-------|-------|-------|-------|-------|-------|-------|-------|-------|


  |--3--|  |--3--|                                                              
  E  E  E  E  E  E  E  E  S. S. S.    W                                         
-----------------------------------|-------------------|-------|-------|-------|
-----------------------------------|-------------------|-------|-------|-------|
-----------------------2--3--2--0--|--2----------------|-------|-------|-------|
-----------------------------------|-------------------|-------|-------|-------|
-----------------------------------|-------------------|-------|-------|-------|
-----------------------------------|-------------------|-------|-------|-------|


                  |--3--|          |--3--|                               
                  E  E  E  Q     S T  T  T   S  S  S  S                  
-------|-------|----------------12----------------10----|-------|-------|
-------|-------|----------------12-L-13-12S-10-------10-|-------|-------|
-------|-------|-------------------------------12-------|-------|-------|
-------|-------|----------------------------------------|-------|-------|
-------|-------|----------------------------------------|-------|-------|
-------|-------|----------------------------------------|-------|-------|


-------|-------|-------|-------|-------|-------|-------|-------|-------|-------|
-------|-------|-------|-------|-------|-------|-------|-------|-------|-------|
-------|-------|-------|-------|-------|-------|-------|-------|-------|-------|
-------|-------|-------|-------|-------|-------|-------|-------|-------|-------|
-------|-------|-------|-------|-------|-------|-------|-------|-------|-------|
-------|-------|-------|-------|-------|-------|-------|-------|-------|-------|


-------|-------|-------|-------|-------|-------|-------|-------|-------|-------|
-------|-------|-------|-------|-------|-------|-------|-------|-------|-------|
-------|-------|-------|-------|-------|-------|-------|-------|-------|-------|
-------|-------|-------|-------|-------|-------|-------|-------|-------|-------|
-------|-------|-------|-------|-------|-------|-------|-------|-------|-------|
-------|-------|-------|-------|-------|-------|-------|-------|-------|-------|


-------|-------|-------|-------|-------|-------|-------|-------|-------|-------|
-------|-------|-------|-------|-------|-------|-------|-------|-------|-------|
-------|-------|-------|-------|-------|-------|-------|-------|-------|-------|
-------|-------|-------|-------|-------|-------|-------|-------|-------|-------|
-------|-------|-------|-------|-------|-------|-------|-------|-------|-------|
-------|-------|-------|-------|-------|-------|-------|-------|-------|-------|


-------|-------|-------|-------|-------|-------||
-------|-------|-------|-------|-------|-------||
-------|-------|-------|-------|-------|-------||
-------|-------|-------|-------|-------|-------||
-------|-------|-------|-------|-------|-------||
-------|-------|-------|-------|-------|-------||

Flute



E||-------|-------|-------|-------|-------|-------|-------|-------|-------|
B||-------|-------|-------|-------|-------|-------|-------|-------|-------|
G||-------|-------|-------|-------|-------|-------|-------|-------|-------|
D||-------|-------|-------|-------|-------|-------|-------|-------|-------|
A||-------|-------|-------|-------|-------|-------|-------|-------|-------|
E||-------|-------|-------|-------|-------|-------|-------|-------|-------|


-------|-------|-------|-------|-------|-------|-------|
-------|-------|-------|-------|-------|-------|-------|
-------|-------|-------|-------|-------|-------|-------|
-------|-------|-------|-------|-------|-------|-------|
-------|-------|-------|-------|-------|-------|-------|
-------|-------|-------|-------|-------|-------|-------|


  Q    Q    Q    S S S S    W                                                 
-------------------------|-------------------|-------|-------|-------|-------|
-------------------------|-------------------|-------|-------|-------|-------|
-------------------------|--2----------------|-------|-------|-------|-------|
-----------------0-2-4-5-|-------------------|-------|-------|-------|-------|
-------------------------|-------------------|-------|-------|-------|-------|
-------------------------|-------------------|-------|-------|-------|-------|


-------|-------|-------|-------|-------|-------|-------|-------|-------|-------|
-------|-------|-------|-------|-------|-------|-------|-------|-------|-------|
-------|-------|-------|-------|-------|-------|-------|-------|-------|-------|
-------|-------|-------|-------|-------|-------|-------|-------|-------|-------|
-------|-------|-------|-------|-------|-------|-------|-------|-------|-------|
-------|-------|-------|-------|-------|-------|-------|-------|-------|-------|


                                                   H         H         
-------|-------|-------|-------|-------|-------|----------------------|
-------|-------|-------|-------|-------|-------|--12--------11--------|
-------|-------|-------|-------|-------|-------|----------------------|
-------|-------|-------|-------|-------|-------|----------------------|
-------|-------|-------|-------|-------|-------|----------------------|
-------|-------|-------|-------|-------|-------|----------------------|


   H         H            H         H            H         H                 
----------------------|----------------------|----------------------|-------|
----------------------|--12--------11--------|----------------------|-------|
----------------------|----------------------|----------------------|-------|
--17--------14--------|----------------------|--16--------14--------|-------|
----------------------|----------------------|----------------------|-------|
----------------------|----------------------|----------------------|-------|


-------|-------|-------|-------|-------|-------|-------|-------|-------|-------|
-------|-------|-------|-------|-------|-------|-------|-------|-------|-------|
-------|-------|-------|-------|-------|-------|-------|-------|-------|-------|
-------|-------|-------|-------|-------|-------|-------|-------|-------|-------|
-------|-------|-------|-------|-------|-------|-------|-------|-------|-------|
-------|-------|-------|-------|-------|-------|-------|-------|-------|-------|


-------|-------|-------|-------|-------|-------|-------|-------|-------|-------|
-------|-------|-------|-------|-------|-------|-------|-------|-------|-------|
-------|-------|-------|-------|-------|-------|-------|-------|-------|-------|
-------|-------|-------|-------|-------|-------|-------|-------|-------|-------|
-------|-------|-------|-------|-------|-------|-------|-------|-------|-------|
-------|-------|-------|-------|-------|-------|-------|-------|-------|-------|


-------|-------|-------|-------|-------|-------|-------|-------|-------|-------|
-------|-------|-------|-------|-------|-------|-------|-------|-------|-------|
-------|-------|-------|-------|-------|-------|-------|-------|-------|-------|
-------|-------|-------|-------|-------|-------|-------|-------|-------|-------|
-------|-------|-------|-------|-------|-------|-------|-------|-------|-------|
-------|-------|-------|-------|-------|-------|-------|-------|-------|-------|


-------||
-------||
-------||
-------||
-------||
-------||



                                                                       Steve Vai
Percussion



                             H.           S  S  E   
C||-------|-------|-------|------------------------|
C||-------|-------|-------|------------------------|
C||-------|-------|-------|-----------------44-46--|
C||-------|-------|-------|------------------------|
C||-------|-------|-------|------------------------|
C||-------|-------|-------|------------------------|


   E   E   E   E   E   E   E   E   
----------------------------------|
----------------------------------|
--44--44--44--44--44--44--44--44--|
----------------------------------|
----------------------------------|
----------------------------------|


   E   E   T  T  S  E   E   E   T  T  S  S  S  
----------------------------------------------|
----------------------------------------------|
--44--44--44-44-44-44--44--44--44-44-44-44-44-|
----------------------------------------------|
----------------------------------------------|
----------------------------------------------|


   E   E   T  T  S  E   E   E   T  T  S  S  S  
----------------------------------------------|
----------------------------------------------|
--44--44--44-44-44-44--44--44--44-44-44-44-44-|
----------------------------------------------|
----------------------------------------------|
----------------------------------------------|


   E   E   T  T  S  E   E   E   T  T  S  S  S  
----------------------------------------------|
----------------------------------------------|
--44--44--44-44-44-44--44--44--44-44-44-44-44-|
----------------------------------------------|
----------------------------------------------|
----------------------------------------------|


   E   E   E   E   E   E   E   E      E   E   E   E   E   E   E   E   
----------------------------------|----------------------------------|
----------------------------------|----------------------------------|
--57--44--46--44--44--44--46--44--|--57--44--46--44--44--44--46--44--|
--33--------------33--------------|--33--------------33--------------|
----------------------------------|----------------------------------|
----------------------------------|----------------------------------|


   E   E   E   E   E   E   E   E      E   E   E   E   E   E   E   E   
----------------------------------|----------------------------------|
----------------------------------|----------------------------------|
--57--44--46--44--44--44--46--44--|--57--44--46--44--44--44--46--44--|
--33--------------33--------------|--33--------------33--------------|
----------------------------------|----------------------------------|
----------------------------------|----------------------------------|


   E   E   E   E   E   E   E   E      E   E   E   E   E   E   E   E   
----------------------------------|----------------------------------|
----------------------------------|----------------------------------|
--57--44--46--44--44--44--46--44--|--57--44--46--44--44--44--46--44--|
--33--------------33--------------|--33--------------33--------------|
----------------------------------|----------------------------------|
----------------------------------|----------------------------------|


   E   E   E   E   E   E   E   E      E   E   E   E   E   E   E   E   
----------------------------------|----------------------------------|
----------------------------------|----------------------------------|
--57--44--46--44--44--44--46--44--|--57--44--46--44--44--44--46--44--|
--33--------------33--------------|--33--------------33--------------|
----------------------------------|----------------------------------|
----------------------------------|----------------------------------|


   E   E   E   E   E   E   E   E      E   E   E   E   E   E   E   E   
----------------------------------|----------------------------------|
----------------------------------|----------------------------------|
--57--44--46--44--44--44--46--44--|--57--44--46--44--44--44--46--44--|
--33--------------33--------------|--33--------------33--------------|
----------------------------------|----------------------------------|
----------------------------------|----------------------------------|


   E   E   E   E   E   E   E   E      E   E   E   E   E   E   E   E   
----------------------------------|----------------------------------|
----------------------------------|----------------------------------|
--57--44--46--44--44--44--46--44--|--57--44--46--44--44--44--46--44--|
--33--------------33--------------|--33--------------33--------------|
----------------------------------|----------------------------------|
----------------------------------|----------------------------------|


   E   E   E   E   E   E   E   E      E   E   E   E   E   E   E   E   
----------------------------------|----------------------------------|
----------------------------------|----------------------------------|
--57--44--46--44--44--44--46--44--|--57--44--46--44--44--44--46--44--|
--33--------------33--------------|--33--------------33--------------|
----------------------------------|----------------------------------|
----------------------------------|----------------------------------|


   E   E   E   E   E   E   E   E      E   E   E   E   E   E   E   E   
----------------------------------|----------------------------------|
----------------------------------|----------------------------------|
--57--44--46--44--44--44--46--44--|--57--44--46--44--44--44--46--44--|
--33--------------33--------------|--33--------------33--------------|
----------------------------------|----------------------------------|
----------------------------------|----------------------------------|


   E   E   E   E   E   E   E   E      E   E   E   E   E   E   E   E   
----------------------------------|----------------------------------|
----------------------------------|----------------------------------|
--57--44--46--44--44--44--46--44--|--57--44--46--44--44--44--46--44--|
--33--------------33--------------|--33--------------33--------------|
----------------------------------|----------------------------------|
----------------------------------|----------------------------------|


   E   E   E   E   E   E   E   E      E   E   E   E   E   E   E   E   
----------------------------------|----------------------------------|
----------------------------------|----------------------------------|
--57--44--46--44--44--44--46--44--|--57--44--46--44--44--44--46--44--|
--33--------------33--------------|--33--------------33--------------|
----------------------------------|----------------------------------|
----------------------------------|----------------------------------|


   E   E   E   E   E   E   E   E      E   E   E   E   E   E   E   E   
----------------------------------|----------------------------------|
----------------------------------|----------------------------------|
--57--44--46--44--44--44--46--44--|--57--44--46--44--44--44--46--44--|
--33--------------33--------------|--33--------------33--------------|
----------------------------------|----------------------------------|
----------------------------------|----------------------------------|


   E   E   E   E   E   E   E   E      E   E   E   E   E   E   E   E   
----------------------------------|----------------------------------|
----------------------------------|----------------------------------|
--57--44--46--44--44--44--46--44--|--57--44--46--44--44--44--46--44--|
--33--------------33--------------|--33--------------33--------------|
----------------------------------|----------------------------------|
----------------------------------|----------------------------------|


   E   E   E   E   E   E   E   E      E   E   E   E   E   E   E   E   
----------------------------------|----------------------------------|
----------------------------------|----------------------------------|
--57--44--46--44--44--44--46--44--|--57--44--46--44--44--44--46--44--|
--33--------------33--------------|--33--------------33--------------|
----------------------------------|----------------------------------|
----------------------------------|----------------------------------|


   E   E   E   E   E   E   E   E      E   E   E   E   E   E   E   E   
----------------------------------|----------------------------------|
----------------------------------|----------------------------------|
--57--44--46--44--44--44--46--44--|--57--44--46--44--44--44--46--44--|
--33--------------33--------------|--33--------------33--------------|
----------------------------------|----------------------------------|
----------------------------------|----------------------------------|


   E   E   E   E   E   E   E   E      E   E   E   E   E   E   E   E   
----------------------------------|----------------------------------|
----------------------------------|----------------------------------|
--57--44--46--44--44--44--46--44--|--57--44--46--44--44--44--46--44--|
--33--------------33--------------|--33--------------33--------------|
----------------------------------|----------------------------------|
----------------------------------|----------------------------------|


   E   E   E   E   E   E   E   E      E   E   E   E   E   E   E   E   
----------------------------------|----------------------------------|
----------------------------------|----------------------------------|
--57--44--46--44--44--44--46--44--|--57--44--46--44--44--44--46--44--|
--33--------------33--------------|--33--------------33--------------|
----------------------------------|----------------------------------|
----------------------------------|----------------------------------|


   E   E   E   E   E   E   E   E      E   E   E   E   E   E   E   E   
----------------------------------|----------------------------------|
----------------------------------|----------------------------------|
--57--44--46--44--44--44--46--44--|--57--44--46--44--44--44--46--44--|
--33--------------33--------------|--33--------------33--------------|
----------------------------------|----------------------------------|
----------------------------------|----------------------------------|


   E   E   E   E   E   E   E   E      E   E   E   E   E   E   E   E   
----------------------------------|----------------------------------|
----------------------------------|----------------------------------|
--57--44--46--44--44--44--46--44--|--57--44--46--44--44--44--46--44--|
--33--------------33--------------|--33--------------33--------------|
----------------------------------|----------------------------------|
----------------------------------|----------------------------------|


   E   E   E   E   E   E   E   E      E   E   E.   S  S  E   S  S  S  S  S  
----------------------------------|----------------------------------------|
----------------------------------|----------------------------------------|
--57--44--46--44--44--44--46--44--|--57--44--46---36-38-36--36-47-45-45-43-|
--33--------------33--------------|--33------------------------------------|
----------------------------------|----------------------------------------|
----------------------------------|----------------------------------------|


   E   E   E   E   E   E   E   E      E   E   E   E   E   E   E   E   
----------------------------------|----------------------------------|
----------------------------------|----------------------------------|
--57--44--46--44--44--44--46--44--|--57--44--46--44--44--44--46--44--|
--33--------------33--------------|--33--------------33--------------|
----------------------------------|----------------------------------|
----------------------------------|----------------------------------|


   E   E   E   E   E   E   E   E      E   E   E   E   E   E   E   E   
----------------------------------|----------------------------------|
----------------------------------|----------------------------------|
--57--44--46--44--44--44--46--44--|--57--44--46--44--44--44--46--44--|
--33--------------33--------------|--33--------------33--------------|
----------------------------------|----------------------------------|
----------------------------------|----------------------------------|


   E   E   E   E   E   E   E   E      E   E   E   E   E   E   E   E   
----------------------------------|----------------------------------|
----------------------------------|----------------------------------|
--57--44--46--44--44--44--46--44--|--57--44--46--44--44--44--46--44--|
--33--------------33--------------|--33--------------33--------------|
----------------------------------|----------------------------------|
----------------------------------|----------------------------------|


   E   E   E   E   E   E   E   E      E   E   E   E   E   E   E   E   
----------------------------------|----------------------------------|
----------------------------------|----------------------------------|
--57--44--46--44--44--44--46--44--|--57--44--46--44--44--44--46--44--|
--33--------------33--------------|--33--------------33--------------|
----------------------------------|----------------------------------|
----------------------------------|----------------------------------|


   E   E   E   E   E   E   E   E      E   E   E   E   E   E   E   E   
----------------------------------|----------------------------------|
----------------------------------|----------------------------------|
--57--44--46--44--44--44--46--44--|--57--44--46--44--44--44--46--44--|
--33--------------33--------------|--33--------------33--------------|
----------------------------------|----------------------------------|
----------------------------------|----------------------------------|


   E   E   E   E   E   E   E   E      E   E   E   E   E   E   E   E   
----------------------------------|----------------------------------|
----------------------------------|----------------------------------|
--57--44--46--44--44--44--46--44--|--57--44--46--44--44--44--46--44--|
--33--------------33--------------|--33--------------33--------------|
----------------------------------|----------------------------------|
----------------------------------|----------------------------------|


   E   E   E   E   E   E   E   E      E   E   E   E   E   E   E   E   
----------------------------------|----------------------------------|
----------------------------------|----------------------------------|
--57--44--46--44--44--44--46--44--|--57--44--46--44--44--44--46--44--|
--33--------------33--------------|--33--------------33--------------|
----------------------------------|----------------------------------|
----------------------------------|----------------------------------|


   E   E   E   E   E   E   E   E      E   E   E   E   E   E   E   E   
----------------------------------|----------------------------------|
----------------------------------|----------------------------------|
--57--44--46--44--44--44--46--44--|--57--44--46--44--44--44--46--44--|
--33--------------33--------------|--33--------------33--------------|
----------------------------------|----------------------------------|
----------------------------------|----------------------------------|


   E   E   E   E   E   E   E   E      E   E   E   E   E   E   E   E   
----------------------------------|----------------------------------|
----------------------------------|----------------------------------|
--57--44--46--44--44--44--46--44--|--57--44--46--44--44--44--46--44--|
--33--------------33--------------|--33--------------33--------------|
----------------------------------|----------------------------------|
----------------------------------|----------------------------------|


   E   E   E   E   E   E   E   E                                           
----------------------------------|-------|-------|-------|-------|-------|
----------------------------------|-------|-------|-------|-------|-------|
--57--44--46--44--44--44--46--44--|-------|-------|-------|-------|-------|
--33--------------33--------------|-------|-------|-------|-------|-------|
----------------------------------|-------|-------|-------|-------|-------|
----------------------------------|-------|-------|-------|-------|-------|


-------|-------|-------|-------||
-------|-------|-------|-------||
-------|-------|-------|-------||
-------|-------|-------|-------||
-------|-------|-------|-------||
-------|-------|-------|-------||




Duration Legend
---------------
W - whole
H - half
Q - quarter
E - 8th
S - 16th
T - 32nd
X - 64th
. - note dotted
|-n-|  - n-tuplets


Tablature Legend
----------------
L - tied note
x - dead note
g - grace note
(n) - ghost note
> - accentuded note
NH - natural harmonic
AH - artificial harmonic
TH - tapped harmonic
SH - semi harmonic
PH - pitch harmonic
h - hammer on
p - pull off
b - bend
br - bendRelease
pb - preBend
pbr - preBendRelease
brb - bendReleaseBend
\n/ - tremolo bar dip
\n - tremolo bar dive
-/n - tremolo bar Release up
/n\ - tremolo bar inverted dip
/n - tremolo bar return
-\n - tremolo bar Release down
S - shift slide
s - legato slide
/ -  slide into from below or out of upwards
\ -  slide into from above or out of downwards
~ - vibrato
W - wide vibrato
tr - trill
TP - tremolo picking
T - tapping
S - slap
P - pop
< - fade in
^ - brush up
v - brush down

35=Acoustic Bass Drum
36=Bass Drum
37=Side Stick
38=Acoustic Snare
40=Electric Snare
41=Low Floor Tom
42=Closed Hi-hat
43=High Floor Tom
44=Pedal Hi-Hat
45=Low Tom
46=Open Hi-Hat
47=Low Mid Tom
48=Hi-Mid Tom
49=Crash Cymbal
50=High Tom
51=Ride Cymbal
53=Ride Bell
55=Splash Cymbal
56=Cowbell
57=Crash Cymbal 2
59=Ride Cymbal
71=Whistle 1
72=Whistle 2
Tap to rate this tab
 
# A B C D E F G H I J K L M N O P Q R S T U V W X Y Z