Song name
# A B C D E F G H I J K L M N O P Q R S T U V W X Y Z

Steve Vai - God Eaters tab

             The God Eaters by Steve Vai
As tabbed by Ollie B.  From the album Sound Theories
                                                          
elguitar



      W                    W                     W                  
E||---------------------|--------------------|---------------------|
B||---------------------|--------------------|---------------------|
G||---------------------|--------------------|---------------------|
D||---------------------|--------------------|---------------------|
A||---------------------|--------------------|---------------------|
E||--12\----------------|--L/----------------|---L\----------------|


   Q    Q    Q     Q        Q     Q     Q     Q        Q     Q     Q     Q     
------------------------|--------------------------|--------------------------|
--10----9---------12----|--11----------------------|--------------------------|
-------------9----------|--------11----------------|--------------------------|
------------------------|--------------11----10----|--13----------------13----|
------------------------|--------------------------|--------12----11----------|
------------------------|--------------------------|--------------------------|


   Q     Q     Q     Q        Q     Q     Q     Q     
--------13----12----------|--------------------17----|
--11----------------12----|--------------12----------|
--------------------------|--14----13----------------|
--------------------------|--------------------------|
--------------------------|--------------------------|
--------------------------|--------------------------|


   Q     Q     Q     Q        Q     Q     Q     Q     
--16----------------------|--------------------------|
--------17----14----13----|--16----15----------------|
--------------------------|--------------15----------|
--------------------------|--------------------15----|
--------------------------|--------------------------|
--------------------------|--------------------------|


   Q     Q     Q     Q        Q     E.   E.   E.   E.   
--------13----12----------|----------------------------|
--------------------13----|--------12---11---11---12---|
--15----------------------|--14------------------------|
--------------------------|----------------------------|
--------------------------|----------------------------|
--------------------------|----------------------------|


   E.   E.   E.   Q.     S     E   E   E   E   E   E   E   E   
--10-----------------------|----------------------------------|
-------14------------------|------13--10----------13--10------|
------------13---13------L-|--12----------10--12----------10--|
---------------------------|----------------------------------|
---------------------------|----------------------------------|
---------------------------|----------------------------------|


  E   E   E.   E.   Q.        W                    Q     Q     H         
---------14---13-----------|-------------------|--12--------------------|
-----12------------13------|--L----------------|--------11--------------|
--9------------------------|-------------------|------------------------|
---------------------------|-------------------|--------------13--------|
---------------------------|-------------------|------------------------|
---------------------------|-------------------|------------------------|


   |-----3-----|     |-----3-----|                          
   Q     Q     Q     Q     Q     Q        W                 
--14----11----------14----11----------|--------------------|
--------------------------------------|--------------------|
--------------13----------------14----|--15----------------|
--------------------------------------|--------------------|
--------------------------------------|--------------------|
--------------------------------------|--------------------|


   |-----3-----|     |-----3-----|                          
   Q     Q     Q     Q     Q     Q        W                 
--------------------------------------|--------------------|
--------------------12----11----------|--------------------|
--14----13----------------------11----|--13----------------|
--------------14----------------------|--------------------|
--------------------------------------|--------------------|
--------------------------------------|--------------------|


   |-----3-----|                  3    3    3    3    3            
   Q     Q     Q     H            E.   E.   E.   E.   E.   Q.      
------------------------------|-----------------------------------|
--------16----14--------------|-------16---14--------16---14------|
--13----------------13--------|--13-------------13----------------|
------------------------------|-----------------------------------|
------------------------------|-----------------------------------|
------------------------------|-----------------------------------|


                          |---------3---------|                               
   Q     H.               H         H         H            W                  
--------14------------|--------------------------------|---------------------|
----------------------|--------------------------------|---------------------|
--13------------------|----------------------13--------|---------------------|
----------------------|--16--------15------------------|--16~----------------|
----------------------|--------------------------------|---------------------|
----------------------|--------------------------------|---------------------|


   |---3---|   |---3---|   |---3---|   |---3---|   
   E   E   E   E   E   E   E   E   E   E   E   E   
------------------------------13------------------|
----------------------------------17--13--12------|
--------------------------15------------------15--|
----------13----------13--------------------------|
--16--15------12--11------------------------------|
--------------------------------------------------|


             |-----3-----|                                               
   H         Q     Q     Q        W                    W                 
------------------------------|---------------------|-------------------|
------------12----15----------|---------------------|-------------------|
--15--------------------14----|--13~----------------|--L----------------|
------------------------------|---------------------|-------------------|
------------------------------|---------------------|-------------------|
------------------------------|---------------------|-------------------|





Duration Legend
---------------
W - whole
H - half
Q - quarter
E - 8th
S - 16th
T - 32nd
X - 64th
. - note dotted
|-n-|  - n-tuplets


Tablature Legend
----------------
L - tied note
x - dead note
g - grace note
(n) - ghost note
> - accentuded note
NH - natural harmonic
AH - artificial harmonic
TH - tapped harmonic
SH - semi harmonic
PH - pitch harmonic
h - hammer on
p - pull off
b - bend
br - bendRelease
pb - preBend
pbr - preBendRelease
brb - bendReleaseBend
\n/ - tremolo bar dip
\n - tremolo bar dive
-/n - tremolo bar Release up
/n\ - tremolo bar inverted dip
/n - tremolo bar return
-\n - tremolo bar Release down
S - shift slide
s - legato slide
/ -  slide into from below or out of upwards
\ -  slide into from above or out of downwards
~ - vibrato
W - wide vibrato
tr - trill
TP - tremolo picking
T - tapping
S - slap
P - pop
< - fade in
^ - brush up
v - brush down
Tap to rate this tab
# A B C D E F G H I J K L M N O P Q R S T U V W X Y Z