Guitaretab - guitar tabs
Song name
# A B C D E F G H I J K L M N O P Q R S T U V W X Y Z

Steve Vai - Im Becoming tab

I'm Becoming by Steve Vai

As tabbed by Ollie B.  From the album Sound Theories
Ollie B.
Guitar 1

     W                    W                   H         Q     Q
E||--------------------|-------------------|------------------------|
B||--------------------|-------------------|------------------------|
G||--------------------|-------------------|--L---------------------|
D||--------------------|-------------------|------------------------|
A||--2~----------------|--L----------------|--2~--------L~----9~----|
E||--------------------|-------------------|------------------------|


  H.           Q        W                  H          H
---------------------|-------------------------------------------|
---------------------|-------------------------------------------|
---------------------|--------------------------------1/~--------|
---------------------|-------------------------------------------|
--L------------9\----|-------------------------------------------|
---------------------|--4/~----------------L/~-------------------|


                                             ^
  W                   H         H            H        H
-------------------|--4---------L---------|--------------------|
-------------------|--3---------L---------|--3--------3--------|
--L----------------|--3\--------3\--------|--2--------L--------|
-------------------|----------------------|--0--------L--------|
-------------------|----------------------|--0--------L--------|
--L----------------|----------------------|--------------------|


  W                   ^
  W                   E   H.               T T Q     Q     E
-------------------|--2s--5-------------|--5-0-3~----L\----L--|
--L----------------|--2s--5-------------|---------------------|
-------------------|--3s--6~------------|---------------------|
-------------------|--------------------|---------------------|
-------------------|--------------------|---------------------|
-------------------|--------------------|---------------------|


  W
--L----------------|-------------------|-------------------|-------------------|
-------------------|-------------------|-------------------|-------------------|
-------------------|-------------------|-------------------|-------------------|
-------------------|-------------------|-------------------|-------------------|
-------------------|-------------------|-------------------|-------------------|
-------------------|-------------------|-------------------|-------------------|


  \1/                            \1/
  W                   E   Q.     H
-------------------|--2s--L------L--------|-----------|-----------|
--4----------------|--2s--5---------------|-----------|-----------|
-------------------|--3s--6---------------|-----------|-----------|
-------------------|----------------------|-----------|-----------|
-------------------|----------------------|-----------|-----------|
-------------------|----------------------|-----------|-----------|


  ^                                        ^
  W                                        W
--7~----------------|-------------------|--7~----------------|
--8-----------------|-------------------|--8-----------------|
--7-----------------|-------------------|--7-----------------|
--------------------|-------------------|--------------------|
--------------------|-------------------|--------------------|
--------------------|-------------------|--------------------|


-------------------|-------------------|-------------------|-------------------|
-------------------|-------------------|-------------------|-------------------|
-------------------|-------------------|-------------------|-------------------|
-------------------|-------------------|-------------------|-------------------|
-------------------|-------------------|-------------------|-------------------|
-------------------|-------------------|-------------------|-------------------|


-------------------|-------------------|-------------------|-------------------|
-------------------|-------------------|-------------------|-------------------|
-------------------|-------------------|-------------------|-------------------|
-------------------|-------------------|-------------------|-------------------|
-------------------|-------------------|-------------------|-------------------|
-------------------|-------------------|-------------------|-------------------|


   ^                                             ^
   W                    Q      H.                W
--19----------------|--21s----19s------------|--16-----------------|
--20----------------|------------------------|--17-----------------|
--19----------------|------------------------|--16~----------------|
--------------------|------------------------|---------------------|
--------------------|------------------------|---------------------|
--------------------|------------------------|---------------------|


                            ^
  H         Q      Q        W                    H         Q      Q
-----------21s----19----|--19----------------|---L--------17s----16----|
------------------------|--20----------------|-------------------------|
--L---------------------|--19----------------|-------------------------|
------------------------|--------------------|-------------------------|
------------------------|--------------------|-------------------------|
------------------------|--------------------|-------------------------|


   ^                         ^
   H.           E    E       W                    H         Q      Q
--16------------L\---L/--|--16----------------|---L--------17s----14----|
--17------------L--------|--17----------------|-------------------------|
--18------------L--------|--16----------------|-------------------------|
-------------------------|--------------------|-------------------------|
-------------------------|--------------------|-------------------------|
-------------------------|--------------------|-------------------------|


   ^
   W                    E    E    E    E  E  E  E  E      E    Q      Q
--14----------------|--16s--14s--16s--14--------------|--14s--16s----12----|
--15----------------|---L----L----L----L--L--L--L--L--|--------------------|
--14----------------|---L----L----L----L--L--L--L--L--|--------------------|
--------------------|---------------------------------|--------------------|
--------------------|---------------------------------|--------------------|
--------------------|---------------------------------|--------------------|


-------|-------||
-------|-------||
-------|-------||
-------|-------||
-------|-------||
-------|-------||

                                                                        Ollie B.
guitar 2

                                     Q    Q    W.
E||-------|-------|-------|-------|-------------------------------|
B||-------|-------|-------|-------|-------------------------------|
G||-------|-------|-------|-------|-------------------------------|
D||-------|-------|-------|-------|-------------------------------|
A||-------|-------|-------|-------|------------3/~----------------|
E||-------|-------|-------|-------|-------------------------------|


  W
--------------------|-------------------|-------------------|
--------------------|-------------------|-------------------|
--------------------|-------------------|-------------------|
--------------------|-------------------|-------------------|
--L~----------------|-------------------|-------------------|
--------------------|-------------------|-------------------|


                                          H.           E.   S
-------------------|-------------------|-------------------20-|----|----|----|
-------------------|-------------------|----------------------|----|----|----|
-------------------|-------------------|----------------------|----|----|----|
-------------------|-------------------|----------------------|----|----|----|
-------------------|-------------------|----------------------|----|----|----|
-------------------|-------------------|----------------------|----|----|----|

[ Tab from: http://www.guitaretab.com/s/steve-vai/94865.html ]
----|----|----|----|----|----|----|----|----|----|----|----|----|----|----|----|
----|----|----|----|----|----|----|----|----|----|----|----|----|----|----|----|
----|----|----|----|----|----|----|----|----|----|----|----|----|----|----|----|
----|----|----|----|----|----|----|----|----|----|----|----|----|----|----|----|
----|----|----|----|----|----|----|----|----|----|----|----|----|----|----|----|
----|----|----|----|----|----|----|----|----|----|----|----|----|----|----|----|


----|----|----|----|----|----|----|----|----|----|----|----|----|----||
----|----|----|----|----|----|----|----|----|----|----|----|----|----||
----|----|----|----|----|----|----|----|----|----|----|----|----|----||
----|----|----|----|----|----|----|----|----|----|----|----|----|----||
----|----|----|----|----|----|----|----|----|----|----|----|----|----||
----|----|----|----|----|----|----|----|----|----|----|----|----|----||

                                                                        Ollie B.
Guitar 3

                                     Q    Q    H        W
E||-------|-------|-------|-------|----------------------------------------|
B||-------|-------|-------|-------|----------------------------------------|
G||-------|-------|-------|-------|----------------------------------------|
D||-------|-------|-------|-------|---------------------2/~----------------|
A||-------|-------|-------|-------|----------------------------------------|
E||-------|-------|-------|-------|----------------------------------------|


  W
--------------------|-------------------|-------------------|
--------------------|-------------------|-------------------|
--------------------|-------------------|-------------------|
--L~----------------|-------------------|-------------------|
--------------------|-------------------|-------------------|
--------------------|-------------------|-------------------|


-------------------|-------------------|-------------------|-------------------|
-------------------|-------------------|-------------------|-------------------|
-------------------|-------------------|-------------------|-------------------|
-------------------|-------------------|-------------------|-------------------|
-------------------|-------------------|-------------------|-------------------|
-------------------|-------------------|-------------------|-------------------|


                             ^                       W      ^
  E  S S E  E  E  Q.         W                   E   Q.     H
--------------------------|-------------------|----------------------|
--3--1-2-3--2--2--L~------|--4----------------|--8s--9------4--------|
--------------------------|--4----------------|--8s--9------4--------|
--------------------------|--4----------------|--8s--9------4--------|
--------------------------|-------------------|----------------------|
--------------------------|-------------------|----------------------|


  W                                       Q     Q    H
-------------------|-------------------|--4s----6----9\--------|
--L----------------|-------------------|-----------------------|
-------------------|-------------------|-----------------------|
-------------------|-------------------|-----------------------|
-------------------|-------------------|-----------------------|
-------------------|-------------------|-----------------------|


                                            ^
  W                   H        Q    Q       W
--L----------------|-----------9----7----|--6~----------------|
-------------------|---------------------|--8-----------------|
-------------------|---------------------|--7-----------------|
-------------------|---------------------|--------------------|
-------------------|---------------------|--------------------|
-------------------|---------------------|--------------------|


                        ^
  H        Q    Q       H         Q     Q       W
-----------9----7----|--6~--------Ls----8----|--L----------------|
---------------------|--8--------------------|-------------------|
---------------------|--7--------------------|-------------------|
---------------------|-----------------------|-------------------|
---------------------|-----------------------|-------------------|
---------------------|-----------------------|-------------------|


  H.            Q        Q        H          Q      Q
---------------------|---------|-------------------------|
--7~------------7----|--10\----|--7~--------10s-----7----|
--4-------------4----|---7\----|--4----------7s-----4----|
--4-------------4----|---7\----|--4----------7s~----4----|
---------------------|---------|-------------------------|
---------------------|---------|-------------------------|


  ^
  H         Q     Q       W                    H.           Q
-----------------------|--------------------|--------------------|
--4~--------6s----4----|--2~----------------|--L------------3----|
--4---------6s----4----|--2-----------------|--------------------|
--4---------6s----4----|--2-----------------|--------------------|
-----------------------|--------------------|--------------------|
-----------------------|--------------------|--------------------|


-------------------|-------------------|-------------------|-------------------|
-------------------|-------------------|-------------------|-------------------|
-------------------|-------------------|-------------------|-------------------|
-------------------|-------------------|-------------------|-------------------|
-------------------|-------------------|-------------------|-------------------|
-------------------|-------------------|-------------------|-------------------|


-------------------|-------------------|-------------------|-------------------|
-------------------|-------------------|-------------------|-------------------|
-------------------|-------------------|-------------------|-------------------|
-------------------|-------------------|-------------------|-------------------|
-------------------|-------------------|-------------------|-------------------|
-------------------|-------------------|-------------------|-------------------|


-------------------|-------------------|-------------------|
-------------------|-------------------|-------------------|
-------------------|-------------------|-------------------|
-------------------|-------------------|-------------------|
-------------------|-------------------|-------------------|
-------------------|-------------------|-------------------|


  Q.      S  S  S  S  S  S  S  S  S  S
---------12-13-12-10-12-10-12-13-10-12-|
---------------------------------------|
---------------------------------------|
---------------------------------------|
---------------------------------------|
---------------------------------------|


   S  S  S. T  S  S. T  S  E   E   Q        W
--13-15-17-15-17-18-17-18-20--21--22----|--25~----------------||
----------------------------------------|---------------------||
----------------------------------------|---------------------||
----------------------------------------|---------------------||
----------------------------------------|---------------------||
----------------------------------------|---------------------||


Duration Legend
---------------
W - whole
H - half
Q - quarter
E - 8th
S - 16th
T - 32nd
X - 64th
. - note dotted
|-n-|  - n-tuplets


Tablature Legend
----------------
L - tied note
x - dead note
g - grace note
(n) - ghost note
> - accentuded note
NH - natural harmonic
AH - artificial harmonic
TH - tapped harmonic
SH - semi harmonic
PH - pitch harmonic
h - hammer on
p - pull off
b - bend
br - bendRelease
pb - preBend
pbr - preBendRelease
brb - bendReleaseBend
\n/ - tremolo bar dip
\n - tremolo bar dive
-/n - tremolo bar Release up
/n\ - tremolo bar inverted dip
/n - tremolo bar return
-\n - tremolo bar Release down
S - shift slide
s - legato slide
/ -  slide into from below or out of upwards
\ -  slide into from above or out of downwards
~ - vibrato
W - wide vibrato
tr - trill
TP - tremolo picking
T - tapping
S - slap
P - pop
< - fade in
^ - brush up
v - brush down
Related for Im Becoming tab
Advertisement will be closed in 10 seconds