Song name
# A B C D E F G H I J K L M N O P Q R S T U V W X Y Z

Steve Von Till - Warning Of A Storm tab

Submitted by Matthias Jessen - September 2008

Main Guitar Riff played the whole Song

e---------------------------|
h---------------------------|
G---------------------------|
D---------------------------|
A-----9-7---9-7---6-7---6-7-|
E---7-----7-----4-----4-----|

Piano comes in at 2:17
Played 6 times, let notes ring

e------------------------------|
h------------------------------|
G------------------------------|
D-------------8-9--------------|
A---9-7------------------------|
E------------------------------|

Piano at 3:25
Played until the end with variations in tempo and an added note D(9) in the last part of 
beautiful song.

e------------------------------|
h------------------------------|
G-------------8-9-8------------|
D-----------------------(9)----|
A---9-7------------------------|
E------------------------------|

I hope you like it!
Tap to rate this tab
# A B C D E F G H I J K L M N O P Q R S T U V W X Y Z